Oops, an error
Loading. Please wait.

One Step Closer Tab

version 1
version 1

Interactive

Video

302,438 views 234 this week
27 commentsread comments
1 2 3 4 5
accurate
x 89
add to favorites
launch autoscroll
font size
0
reset
how to read this tab
guitar tuner
Autoscroll
slow
fast
+/-
esc
set tempo
stop
Help us to improve Ultimate-Guitar.com Take our survey!
×
Tuning
C# G# C# F# A# D#
tuned down one half step drop D

[Riff 1]

D#|------------------------------------------------------------------------------|
A#|------------------------------------------------------------------------------|
F#|------------------------------------------------------------------------------|
C#|------------------------------------------------------------------------------|
G#|------------7-----------------------------------------------------------------|
C#|-0--^5--^7------8--^7--0--3---------------------------------------------------|


[Riff 2]

D#|------------------------------------------------------------------------------|
A#|------------------------------------------------------------------------------|
F#|-------------9---------------5------------------------------------------------|
C#|---------x-------8---7--------------------------------------------------------|
G#|-0---0---x---7---8---7---0---3------------------------------------------------|
C#|-0---0---x-------8---7---0----------------------------------------------------|


[Riff 3]

D#|------------------------------------------------------------------------------|
A#|------------------------------------------------------------------------------|
F#|------------------------------------------------------------------------------|
C#|-5--5--x--x--x--5--5--x-x-x--5--5--x-x-x--------------------------------------|
G#|-5--5--x--x--x--5--5--x-x-x--5--5--x-x-x--------------------------------------|
C#|-5--5--x--x--x--5--5--x-x-x--5--5--x-x-x--------------------------------------|


[Riff 4]

D#|------------------------------------------------------------------------------|
A#|------------------------------------------------------------------------------|
F#|------------------------------------------------------------------------------|
C#|-0--0--0--12--10--10-\--7--7--10--10--5--5--7--7--3--3------------------------|
G#|-0--0--0--12--10--10-\--7--7---8---8--5--5--7--7--1--1------------------------|
C#|-0--0--0--12--10--10-\--7--7---8---8--5--5--7--7--1--1------------------------|


[Riff 5]

D#|------------------------------------------------------------------------------|
A#|------------------------------------------------------------------------------|
F#|------------------------------------------------------------------------------|
C#|-1--0--x--x--x--0--3--1--0--6--0--3-------------------------------------------|
G#|-1--0--x--x--x--0--3--1--0--6--0--3-------------------------------------------|
C#|-1--0--x--x--x--0--3--1--0--6--0--3-------------------------------------------|


[Riff 5] second time

D#|------------------------------------------------------------------------------|
A#|------------------------------------------------------------------------------|
F#|------------------------------------------------------------------------------|
C#|-1--0--x--x--x--0--3--1--0--1---1--0------------------------------------------|
G#|-1--0--x--x--x--0--3--1--0--1---1--0------------------------------------------|
C#|-1--0--x--x--x--0--3--1--0--1---1--0------------------------------------------|
                           [-- P.M.--]


************************************

| x    Dead note
| \    Slide down
| ^    Bend
| P.M. Palm Mute

************************************
comments
print report bad tab
27 comments total. Showing first comments. show 1 bad comment
0 reply
Rage 1,497 wrote on March 8 2002, 12:00 am

Pretty good, but it's missing some parts.

0 reply
Andym 196 wrote on March 14 2002, 12:00 am

I have the real tabs for this. Look for it sometime next week.

I want to post or [tab]
guest
You may want to rate the tab now too:
select rating
Please do not post tabs as comments. Select "correction" instead!