Oops, an error
Loading. Please wait.

One Step Closer Tab

version 6
45,561 views 60 this week
8 commentsread comments
1 2 3 4 5
x 23
add to favorites
launch autoscroll
font size
0
reset
how to read this tab
guitar tuner
Autoscroll
slow
fast
+/-
esc
set tempo
stop
Help us to improve Ultimate-Guitar.com Take our survey!
×
Author
Tabbers playing skills
advanced ++
I tried to play this, but couldn't find the right way. Then I decided to use my
own, and here it is.

*****************************************************************************
ONE STEP CLOSER

Artist: Linkin Park
Album: Hybrid
Tabbed by: antman1385
*****************************************************************************

Tuning: Drop D + Half Step Down (Eb Bb Gb Db Ab Db)

*****************************************************************************

SONG PARTS

*****************************************************************************

RIFF 1

Eb|---------------------------------------|
Bb|---------------------------------------|
Gb|---------------------------------------|
Db|---------------------------------------|
Ab|-------5-------7-------1----0----------|
Db|--0---------7--------------------0--3--|


RIFF 2

Eb|----------------------------------|
Bb|----------------------------------|
Gb|----------9-9---------------------|
Db|--0---0-----9------8---7---0-10---|
Ab|--0---0---7-7------8---7---0-10---|
Db|--0---0------------8---7---0-10---|

PRE - CHORUS 1

Eb|--------------------------------------------------------| (. indicates 
Bb|--------------------------------------------------------|  palm mute)
Gb|--------------------------------------------------------|
Db|--5------5--5----5--5------5--5----5--5------5--5----5--|
Ab|--5------5--5----5--5------5--5----5--5------5--5----5--|
Db|--5------5--5----5--5------5--5----5--5------5--5----5--|
            .  .    .         .  .    .         .  .    .


PRE - CHORUS 2

Eb|--------------------------------------------------------| (. indicates 
Bb|-----------------------------------------------9-9-9-9--|  palm mute)
Gb|-----------------------------------------------7-7-7-7--|
Db|--5------5--5----5--5------5--5----5--5-----------------|
Ab|--5------5--5----5--5------5--5----5--5-----------------|
Db|--5------5--5----5--5------5--5----5--5-----------------|
            .  .    .         .  .    .       


CHORUS

Eb|-------------------------------------------|
Bb|-------------------------------------------|
Gb|-------------------------------------------|
Db|--0----12----10----7----8----5----7----1---|
Ab|--0----12----10----7----8----5----7----1---|
Db|--0----12----10----7----8----5----7----1---|


POST - CHORUS


Eb|--------------------------|
Bb|--------------------------|
Gb|--------------------------|
Db|--1--1--1--1--1--1--1--1--|
Ab|--1--1--1--1--1--1--1--1--|
Db|--1--1--1--1--1--1--1--1--|


BRIDGE

Eb|------------------------------|
Bb|------------------------------|
Gb|------------------------------|
Db|--1--0-------0-3-1-0-6---0-3--|
Ab|--1--0-------0-3-1-0-6---0-3--|
Db|--1--0-------0-3-1-0-6---0-3--|

*****************************************************************************

SONG STRUCTURE

*****************************************************************************

RIFF 1(x4)
RIFF 2(x12)
PRE-CHORUS 1
CHORUS(x2)
RIFF 2(x4)
PRE-CHORUS 2
CHORUS(x4)
POST-CHORUS
RIFF 1(x4)
BRIDGE(x4)
CHORUS(x4)
POST-CHORUS
Suggest correction
comments
print report bad tab
8 comments total. Showing first comments.
+2 reply
synystar666 10 Aug 23, 2009 05:42 PM

intro
e|------------------------|
b|------------------------|
g|------------------------|
d|------------------------|
a|----5---7---------------|
d|-0----7----8--7--0--3---|

+1 reply
antman1385 140 Aug 23, 2009 07:20 PM

@synystar666:

it's actually the same thing. it's just a little easier to play my way. thanks for trying to help, though.

+3 reply
Star_powa 10 Oct 21, 2009 10:13 AM

lol how can you call this as Advanced++ level?

guest
You may want to rate the tab now too:
select rating
Wanna post a correction for this tab? Suggest correction