Oops, an error
Loading. Please wait.

One Step Closer Tab

version 7
14,682 views 18 this week
4 commentsread comments
1 2 3 4 5
accurate
x 12
add to favorites
launch autoscroll
font size
0
reset
how to read this tab
guitar tuner
Tab Pro tools
  • play this tab
  • loop segment
  • change instrument
  • show fretboard
  • metronome
×
Best way to learn
"One Step Closer"
Autoscroll
slow
fast
+/-
esc
set tempo
stop
Tabbed by: Chriss

Artist: Linkin Park
Title: One Step Closer
Album: Hybrid Theory
Guitarist: Brad Delson
Version: Album Version

Drop Db 1/2 step tuning
(Db,Ab,Db,Gb,Bb,Eb)
x=muted
+  harmonic

/ Slide 

I watched their performance at an MTV event (forgot the name)years ago. They
played the song with the X-ecutioners.I watched it about 60 times to figure it
out,so I am sure it´s almost 100% correct.

I added another (easier) verse-riff at the end cause the right one is a bit complicated.

I think Linkin Park is one of the Best Bands in the whole world and 
Brad Delson is amazing.

the whole song is distorted

Intro:
Eb---------------
Bb---------------
Gb---------------
Db--------------- Do 4x
Ab--5-7----------
Db-0-0-8-7-3/2---

Per-Verse:
Eb----------------------
Bb-----8/10-----6-------
Gb-----7/9------5-------
Db-00—-7/9--8-7-5--Do 4x
Ab-00—-5/7--8-7-3-------
Db-00-------8-7---------
(watch the timing!!!)
Verse:  

Eb----------------------
Bb-----8/10-----6-------
Gb-----7/9------5-------
Db-00—-7/9--8-7-5--Do 8x
Ab-00—-5/7--8-7-3-------
Db-00-------8-7---------
(watch the timing!!!)


Pre Chorus 1:
Eb---------------------------------------
Bb---------------------------------------
Gb---------------------------------------
Db-5-5-x-x-5-5-5-x-x-5-5-5-x-x-5-5-5-xx-x
Ab-5-5-x-x-5-5-5-x-x-5-5-5-x-x-5-5-5-xx-x
Db-5-5-x-x-5-5-5-x-x-5-5-5-x-x-5-5-5-xx-x

Chorus:
Eb--------------------------------------
Bb----88-66-----------------------------
Gb----77-55-----------------------------
Db-00-77-55-77-88-55-77-3/2-0----- Do 2x
Ab-00-55-33-77-88-55-77-3/2-0-----------
Db-00-------77-88-55-77-3/2-0-----------
Verse:

Eb----------------------
Bb-----8/10-----6-------
Gb-----7/9------5-------
Db-00—-7/9--8-7-5--Do 8x
Ab-00—-5/7--8-7-3-------
Db-00-------8-7---------


Pre Chorus 2:
Eb-----------------------------------------+5--------------
Bb-----------------------------------------+5--------------
Gb-----------------------------------------+5--------------
Db-5-5-x-x-5-5-5-x-x-5-5-5-x-x-5-5-5-xx-x--+5-------- Do 1x
Ab-5-5-x-x-5-5-5-x-x-5-5-5-x-x-5-5-5-xx-x------------------
Db-5-5-x-x-5-5-5-x-x-5-5-5-x-x-5-5-5-xx-x------------------

Chorus:
Eb----------------------------------
Bb----88-66-------------------------
Gb----77-55-------------------------
Db-00-77-55-77-88-55-77-3/2-0--Do 4x   than
Ab-00-55-33-77-88-55-77-3/2-0-------
Db-00-------77-88-55-77-3/2-0-------

Eb-----------------
Bb-----------------
Gb-----------------
Db-5-5-5-5-5-5-5-5-
Ab-5-5-5-5-5-5-5-5-
Db-5-5-5-5-5-5-5-5-

Interlude:
Eb---------------
Bb---------------
Gb---------------
Db--------------- Do 4x
Ab--5-7----------
Db-0-0-8-7-3/2---

Bridge:
Eb------------------------             E------------------------------
Bb------------------------             B------------------------------
Gb------------------------             G----------------x---x--x--------
Db-3-0-x-x-x-1-2-1-0/6-0--  Do 3x than D-3-0-x-x-x-00-0-x---x--x--------
Ab-3-0-x-x-x-1-2-1-0/6-0--             A-3-0-x-x-x-00-0-x---x--x--------
Db-3-0-x-x-x-1-2-1-0/6-0--             D-3-0-x-x-x-00-0-x---x--x--------

Bridge:
Eb----------------------               E----------------------------
Bb----------------------               B----------------------------
Gb----------------------               G----------------------------
Db-3-0-x-x-x-1-2-1-0/6-0--  Do 3x than D-3-0-x-x-x-00-0-5-5-5-5-----
Ab-3-0-x-x-x-1-2-1-0/6-0--             A-3-0-x-x-x-00-0-5-5-5-5-----
Db-3-0-x-x-x-1-2-1-0/6-0--             D-3-0-x-x-x-00-0-5-5-5-5-----



Chorus:
Eb----------------------------------
Bb----88-66-------------------------
Gb----77-55-------------------------
Db-00-77-55-77-88-55-77-3/2-0--Do 4x   than
Ab-00-55-33-77-88-55-77-3/2-0-------
Db-00-------77-88-55-77-3/2-0-------

Eb-----------------
Bb-----------------
Gb-----------------
Db-5-5-5-5-5-5-5-5-
Ab-5-5-5-5-5-5-5-5-
Db-5-5-5-5-5-5-5-5-
End

If the verse is too complicated for you,just play

Eb----------------------
Bb----------------------
Gb-----7/9------5-------
Db-00—-7/9--8-7-5--Do 8x
Ab-00—------8-7---------
Db-00-------8-7---------

That would be also fine! 

That´s it. Some parts are a bit difficult,but it´s a very cool song which
is worth to play it. Have fun and enjoy my work! Linkin Park RULEZ!!!

Comments to “derocker@web.de”
Thank you!
comments
print report bad tab
4 comments total. Showing first comments.
+1 reply
Fluorescent wrote on April 28 2008, 01:47 pm

"the whole song is distorted" - what did you expect from LP? :P

0 reply
Hyperboy111 wrote on April 18 2009, 12:11 pm

Finally, a One Step Closer tab that makes sense!

0 reply
NimrodOnHoliday wrote on March 14 2013, 07:52 pm

Yes! Exactly! :D

I want to post or [tab]
guest
You may want to rate the tab now too:
select rating
Please do not post tabs as comments. Select "correction" instead!