Oops, an error
Loading. Please wait.

One Step Closer Tab

version 8
20,593 views 3 this week
5 commentsread comments
1 2 3 4 5
accurate
x 6
add to favorites
launch autoscroll
font size
0
reset
how to read this tab
guitar tuner
Tab Pro tools
  • play this tab
  • loop segment
  • change instrument
  • show fretboard
  • metronome
×
Best way to learn
"One Step Closer"
Autoscroll
slow
fast
+/-
esc
set tempo
stop
Contributor
----------------------------------------------------------------------------
                            One Step Closer - Linkin Park
----------------------------------------------------------------------------
Tabbed by:Andrew Ly
Email:clr_ak_2_47_andrew_ly_@hotmail.com

This is my first tab so cuz mt some slack.
I listened to the song several times and this is what i got.
these are the notes that i use to play with the song and it sounds fine to me.
if u have any comments just email me.

Tuning:Drop D 1/2 step low-high: Db Ab Db Gb Bb Eb

 Intro
Eb|-----------------|
Bb|-----------------|
Gb|-----------------| x4
Db|-----------------|
Ab|---5---7---------|
Db|-0---0---8-7-0-3-|

Verse 1
Eb|-------------------------|
Bb|-------------------------|
Gb|------9-9--9---------5-5-|
Db|-0-0--x-x--x--8-7-0--x-x-|repeat throughtout verses
Ab|-0-0--7-7--7--8-7-0--3-3-|
Db|-0-0----------8-7-0------|

 Pre-Chorus
Eb|------------------------------|
Bb|------------------------------|
Gb|------------------------------|
Db|--5-x-x-x-5-5-x-x-x-5-5-x-x-x-|
Ab|--5-x-x-x-5-5-x-x-x-5-5-x-x-x-|
Db|--5-x-x-x-5-5-x-x-x-5-5-x-x-x-|

 Chorus
Eb|--------------------------------------|
Bb|--------------------------------------|
Gb|--------------------------------------|
Db|-0-0-12-12-10-10-7-7-8-8-5-5-7-7-3-3--| x2
Ab|-0-0-12-12-10-10-7-7-8-8-5-5-7-7-3-3--|
Db|-0-0-12-12-10-10-7-7-8-8-5-5-7-7-3-3--|

  Verse 2
Eb|-------------------------|
Bb|-------------------------|
Gb|------9-9--9---------5-5-|
Db|-0-0--x-x--x--8-7-0--x-x-|repeat throughtout verses
Ab|-0-0--7-7--7--8-7-0--3-3-|
Db|-0-0----------8-7-0------|

 Pre-Chorus
Eb|--------------------------------------------|
Bb|--------------------------------------------|
Gb|-------------------------------12-12-12-12--|
Db|--5-x-x-x-5-5-x-x-x-5-5-x-x-x---x--x--x--x--|
Ab|--5-x-x-x-5-5-x-x-x-5-5-x-x-x--10-10-10-10--|
Db|--5-x-x-x-5-5-x-x-x-5-5-x-x-x---------------|

Chorus
Eb|--------------------------------------|
Bb|--------------------------------------|
Gb|--------------------------------------|
Db|-0-0-12-12-10-10-7-7-8-8-5-5-7-7-3-3--| x2
Ab|-0-0-12-12-10-10-7-7-8-8-5-5-7-7-3-3--|
Db|-0-0-12-12-10-10-7-7-8-8-5-5-7-7-3-3--|

  Interlude
Eb|-----------------|
Gb|-----------------|
Bb|-----------------| x4
Db|-----------------|
Ab|---5---7---------|
Db|-0---0---8-7-0-3-|

  Bridge
Eb|---------------------------|
Gb|---------------------------|
Bb|---------------------------|
Db|-1-0-x-x--x-0-3-1-0-6-0-3--|
Ab|-1-0-x-x--x-0-3-1-0-6-0-3--|
Db|-1-0-x-x--x-0-3-1-0-6-0-3--|

Chorus
Eb|--------------------------------------|
Bb|--------------------------------------|
Gb|--------------------------------------|
Db|-0-0-12-12-10-10-7-7-8-8-5-5-7-7-3-3--| Repeat until end
Ab|-0-0-12-12-10-10-7-7-8-8-5-5-7-7-3-3--|
Db|-0-0-12-12-10-10-7-7-8-8-5-5-7-7-3-3--|




| /  slide up
| \  slide down
| h  hammer-on
| p  pull-off
| ~  vibrato
| +  harmonic
| x  Mute note
===========================================================================|
comments
print report bad tab
5 comments total. Showing first comments.
0 reply
lyingfromyou118 wrote on October 6 2004, 12:00 am

The intro has harmonics in it. The octaves in the verse are only hit once, and instead of:
10
10
10
They Play:
10
8
8
And for:
3
3
3
They play:
1
1
3

0 reply
lyingfromyou118 wrote on October 6 2004, 12:00 am

And the prechorus should be like this after the powerchords on 5.
Eb|--------------------------------------------|
Bb|--------------------------------------------|
Gb|---3*-2.5*--2.5*----------------------------|
Db|------------------2.5*----------------------|
Ab|--------------------------------------------|
Db|--------------------------------------------|

0 reply
yoyojoe wrote on November 2 2004, 12:00 am

u r retarted...lol this tab is actually the rightest one i have seen...yes that is a word

I want to post or [tab]
guest
You may want to rate the tab now too:
select rating
Please do not post tabs as comments. Select "correction" instead!