Oops, an error
Loading. Please wait.

P5Hng Me Awy Live Tab

3,050 views 3 this week
1 commentread comment
1 2 3 4 5
excellent!
x 1
add to favorites
launch autoscroll
font size
0
reset
how to read this tab
guitar tuner
Tab Pro tools
  • play this tab
  • loop segment
  • change instrument
  • show fretboard
  • metronome
Autoscroll
slow
fast
+/-
esc
set tempo
stop
Contributor
Title: P5HNG ME A*WY
Album: Live In Texas
Tabbed By: Cha$e
E-mail: martinchase@gmx.de

Tuning:Dropped D one half step down
         
          C# G# C# F# A# D#
Guitar 1 (Brad)
|-7-----7-----7---5-----5-----5------|
|---5-5---5-5---5---3-3---3-3---3----|
|------------------------------------|
|------------------------------------|  4x
|------------------------------------|
|------------------------------------|


Guitar 1,2 (Brad, Mike)
|--------------------------------------------------|
|--------------------------------------------------| 
|--------------------------------------------------| 
|-2-2-x-x-x-x-x-x-x-x-x-x-x-x-x-x-x-x-x-x-x-x-x-x-x| You hear the rhythm
|-2-2-x-x-x-x-x-x-x-x-x-x-x-x-x-x-x-x-x-x-x-x-x-x-x| 
|-2-2-x-x-x-x-x-x-x-x-x-x-x-x-x-x-x-x-x-x-x-x-x-x-x| 

Verse

Guitar 1 (Brad)
|-7-----7-----7---5-----5-----5------|
|---5-5---5-5---5---3-3---3-3---3----|
|------------------------------------|
|------------------------------------| 4x
|------------------------------------|
|------------------------------------|


Chorus 1
Guitar 2(Mike)
|--------------------------|
|--------------------------|
|-----5--------------------|
|-2---5---5---7---9-9-0----| 
|-2---3---5---7---9-9-0----|
|-2-------5---7---9-9-0----|


Guitar 1 (Brad) plays behind guitar 2

|-7-----7-----7---5-----5-----5------|
|---5-5---5-5---5---3-3---3-3---3----|
|------------------------------------|
|------------------------------------| 4x
|------------------------------------|
|------------------------------------|


Bridge
Guitar 1 (Brad)
|-7-----7-----7---5-----5-----5------|
|---5-5---5-5---5---3-3---3-3---3----|
|------------------------------------|
|------------------------------------| 8x
|------------------------------------|
|------------------------------------|

                               

After bridge

Guitar 1 (Brad)

|-------------|
|-------------|
|-9--------11-|Fast strumming
|-x---------x-|
|-7---------9-|
|-------------|
|-------------|
 128x       8x


Guitar 2 (Mike)
|-----------------------|---|
|-----------------------|---|
|-5----7----------------|---|
|-5----7-----7---4---5--|-9-|  Fast strumming
|-3----5-----7---4---5--|-9-|
|------------7---4---5--|-9-|
  16x  16x  16x  8x  8x  4x
                          /\
                          ||
                      only the first time
Chorus 2                   

Guitar 1 (Brad)

|----------------------------------|
|-9----10----12----13----12----10--|
|-x-----x-----x-----x-----x-----x--|
|-6-----7-----9----10-----9-----7--| 4x Fast strumming
|----------------------------------|
|----------------------------------|
 16x    16x  16x   8x     8x    4x




Guitar 2 (Mike)
|--------------------------|
|--------------------------|
|-----5--------------------|
|-2---5---5---7---9-9-0----| 4x
|-2---3---5---7---9-9-0----|
|-2-------5---7---9-9-0----|


this is my first tab!
If you find some mistakes mail me please!



LINKIN PARK FOREVER!!!!!
comments
We did not receive enough feedback on this tab! Please rate:
print report bad tab
1 2 3 4 5
1 comment total.
+1 reply
kelektrik wrote on August 21 2009, 01:17 pm

Guitar 1 (Brad)
|-7-----7-----7---5-----5-----5------|
|---5-5---5-5---5---5-5---5-5---5----|
|------------------------------------|
|------------------------------------| 4x
|------------------------------------|
|------------------------------------|

I want to post or [tab]
guest
You may want to rate the tab now too:
select rating
Please do not post tabs as comments. Select "correction" instead!