Oops, an error
Loading. Please wait.

Papercut Bass Tab

version 5
2,238 views 1 this week
1 commentread comment
1 2 3 4 5
please rate
add to favorites
launch autoscroll
font size
0
reset
guitar tuner
Autoscroll
slow
fast
+/-
esc
set tempo
stop
Help us to improve Ultimate-Guitar.com Take our survey!
×
Contributor
Difficulty
intermediate
Artist: Linkin Park
Song: Papercut
Album: Hybrid Theory

Tuning: Standard

Intro/Chorus:

G:--------------------|
D:----2-1-------------|
A:111-----2-22222-4h5-|
E:--------------------| x4 Last time play E:112 instead of 4h5 then straight into verse.

Verse:              Variation:

G:---------------   (----)-----------|
D:---------------   (----)-----------|
A:----2-2111-----   (----)----2-2111-|
E:000------------   (112-)000--------|

In 1st verse, play variation just before you hear: "like a face that i hold inside", and 
when you hear "and watches everthing."

In 2nd verse, play all the time EXCEPT when you hear: "face that watches everytime they lie"

Chorus 2:

G:--------------------|
D:----2-1-------------|
A:111-----2-22222-4h5-|
E:--------------------| x4

G:--------------------| Play the 112000 along with drums to make it easier.
D:------21------------|
A:--------2-22222-4h5-|
E:112000--------------|

G:--------------------|
D:----2-1-------------|
A:111-----2-22222-4h5-|
E:--------------------|x3 Last time play E:112 instead of 4h5 then straight into Bridge.

Bridge:

G:----------------------------------------------------|
D:----------------------------------------------------|
A:----------------------------------------------------|
E:000----112-000----112-000----112-000000000000000000-|

G:-----------------------------| x3
D:-----------------------------|
A:-----------------------------|
E:-666-6-6888-8-8222-2-2222-2--|

G:----------------------------------|
D:----------------------------------|
A:-----------------------7h8h9-8----|
E:-666-6-6888-8-8222-2-2---------7\-|

G:-----------------------------| x3
D:-----------------------------|
A:-----------------------------|
E:-666-6-6888-8-8222-2-2222-2--|

Ending:

G:----------------------------|
D:----------------------------|
A:----------------------------|
E:-666-6-6888--666-6-6888-----|

G:-----------------------------|
D:-----------------------------|
A:-----------------------------|
E:-666-6-6888-8-8222-2-112-000-|


Well, thats it. Any questions, then my email is btd94@hotmail.co.uk

Thanks.
comments
We did not receive enough feedback on this tab! Please rate:
print report bad tab
1 2 3 4 5
1 comment total.
0 reply
alreadygone 665 wrote on July 10 2008, 06:50 pm

Wrong tuning, wrong notes.

I want to post or [tab]
guest
You may want to rate the tab now too:
select rating
Please do not post tabs as comments. Select "correction" instead!