Oops, an error
Loading. Please wait.

Papercut Tab

3,548 views 1 this week
3 commentsread comments
1 2 3 4 5
accurate
x 4
add to favorites
launch autoscroll
font size
0
reset
how to read this tab
guitar tuner
Autoscroll
slow
fast
+/-
esc
set tempo
stop
Help us to improve Ultimate-Guitar.com Take our survey!
×
Author
Linkin Park: Papercut
Album: Hybrid Theory
Tabed by: Crosby Hass
x4= play four times
m= palm mute
x= mute string

Just play the song in order as I tabed it.
Listen to the song before and after you learn this tab to get the timing right.


Intro
e|10--12--13--12----x4------------------------------------------------------
B|--10--10--10--10----------------------------------------------------------
G|--------------------------------------------------------------------------
D|--------------------------------------------------------------------------
A|--------------------------------------------------------------------------
E|--------------------------------------------------------------------------
Chorus                              *Verse...........................

e|--------------------------------------------------------------------------
B|--------------------------------------------------------------------------
G|--------10-9-5--5-5-------------------------------------------------------
D|--0-0-0--x-x-x--x-x--2-2-2-2------0m-0m-0m--2-2-2-------------------------
A|--0-0-0--8-7-3--3-3--2-2-2-2--x4--0m-0m-0m--2-2-2----3--3-3-3-2-2---------
E|--0-0-0--------------2-2-2-2------0m-0m-0m--2-2-2----1--1-1-1-0-0---------
                      (^ on last time throught dont play the 4 bar chords)

Verse..................................................................
e|--------------------------------------------------------------------------
B|--------------------------------------------------------------------------
G|--------------------------------------------------------------------------
D|-2-2-2----------------------2-2-2-----------------2-2-2-------------------
A|-2-2-2----3--3-3-3-2-2--x3--2-2-2--5--5-5-5-4-4---2-2-2--3--3-3-3-2-2-----
E|-2-2-2----1--1-1-1-0-0------2-2-2--3--3-3-3-0-0---2-2-2--1--1-1-1-0-0-----

Verse continued ..............................................
e|------------------------------------------------------------
B|------------------------------------------------------------
G|------------------------------------------------------------
D|-0m-0m-0m---2-2-2-------------------2-2-2-------------------
A|-0m-0m-0m---2-2-2---3--3-3-3-2-2----2-2-2---3--3-3-3-2-2----
E|-0m-0m-0m---2-2-2---1--1-1-1-0-0----2-2-2---1--1-1-1-0-0----

Chorus                                                   %
e|--------------------------------------------------------------------------
B|--------------------------------------------------------------------------
G|-----10-9-5--5-5----------------------------------------------------------
D|-0-0--x-x-x--x-x-2-2-2-2-0-0-0--------------------------------------------
A|-0-0--8-7-3--3-3-2-2-2-2-0-0-0-----x4--on replay play x8------------------
E|-0-0-------------2-2-2-2-0-0-0--------------------------------------------

Then reply from * symbol to % symbol

e|--------------------------------------------------------------------------
B|--------------------------------------------------------------------------
G|--------------------------------------------------------------------------
D|-0m-0m-0m-2-2-2-----0m-0m-0m-2-2-2-2-2-2-2-2-2-2-2-2-2-2-2-2--------------
A|-0m-0m-0m-2-2-2--x3-0m-0m-0m-2-2-2-2-2-2-2-2-2-2-2-2-2-2-2-2--------------
E|-0m-0m-0m-2-2-2-----0m-0m-0m-2-2-2-2-2-2-2-2-2-2-2-2-2-2-2-2--------------
                               ( ^ play fast)
e|--------------------------------------------------------------------------
B|--------------------------------------------------------------------------
G|---101010-1010/-121212-1212/----------------------------------------------
D|---8-8-8--8-8-/-101010-1010/-x8------------------0m-0m-0m--2-2-2----------
A|---8-8-8--8-8-/-101010-1010/---------------------0m-0m-0m--2-2-2----------
E|-------------------------------------------------0m-0m-0m--2-2-2----------
                             (^ slide into repeats)
End of song

============================================================================
Suggest correction
comments
print report bad tab
3 comments total.
0 reply
guitar41 40 wrote on March 8 2004, 12:00 am

wrong........
it should b tuned down 1/2 step
and in drop d
into/chorus
e-------------------------------------
b-------------------------------------
g--------10--9---5-5-5-5-5-5-5-5------
d--0-0-0-8---7---5-5-5-5-5-5-5-5------
a--0-0-0-8-0-7-0-3-3-3-3-3-3-3-3------
d--0-0-0-8-0-7-0-3-3-3-3-3-3-3-3------

verse
verse is single notes not chords if ya no wat i mean

0 reply
coreyfilth 10 wrote on July 28 2006, 03:14 pm

Esta tablatura tiene un error ya que la afinación de la sexta cuerda debe ser en D.

0 reply
prophetsfan 20 wrote on June 17 2007, 04:13 pm

guitar41, make ya mind up on tuning, u say it should be Db Ab Db Gb Bb Eb but u put it as DADGBE lol =P

guest
You may want to rate the tab now too:
select rating
Please do not post tabs as comments. Select "correction" instead!