Oops, an error
Loading. Please wait.

Papercut Tab

1,538 views 1 this week
no commentswrite comment
1 2 3 4 5
please rate
add to favorites
launch autoscroll
font size
0
reset
how to read this tab
guitar tuner
Autoscroll
slow
fast
+/-
esc
set tempo
stop
Help us to improve Ultimate-Guitar.com Take our survey!
×
-----------------------------------------------------------------------------
-PaperCut-
-----------------------------------------------------------------------------

Luke Griffiths
Tuning: Dropped D ½ step down
BPM:150

         
   Gtr 1(Dist.&Reverb)
   Riffa------------------------------|     
      Q   Q   Q   Q    Q   Q   Q   Q    
Eb||--10------12-----|-13------12-------||
Bb||------10------10-|-----10------10---||
Gb||*----------------|-----------------*||
Db||*----------------|-----------------*||
Ab||-----------------|------------------|| 
Db||-----------------|------------------||  

   


   Gtr 2(Dist.) 
   Rhy Fig 1 
                                                      |------1.2.3------|-----4-----|
     Q   Q   Q   Q     Q   Q   Q   Q  + Q  Q    H        Q   Q   Q   Q +(Q)QE  QQQQ   
eb|------------------|---------------|----------------|-----------------|-----------|
Bb|------------------|---------------|----------------|-----------------|-----------|
Gb|*-------------10--|-----9-------5-|-(5)-5----5-----|--5---5---5---5-*|--55--5----|
Db|*-0---0---0---8---|-0---7---0---5-|-(5)—5----5-----|--5---5---5---5-*|--55--5----|
Ab|--0---0---0---8---|-0---7---0---3-|-(3)-3----3-----|--3---3---3---3--|--33--3113-|  
Db|--0---0---0---8---|-0---7---0---3-|-(3)-3----3-----|--3---3---3---3--|--33--3113-|
     >   >   >   >         >       >                                            PM|



 Gtr 2(Dist.)
 Riff B
        Q   Q   Q    q    q   Q   E E Q    Q   Q   q   q      q   q   q
eb|-|-----------------|----------------|----------------|-|----------|
Bb|-|-----------------|----------------|----------------|-|----------|
Gb|4|-----------------|----------------|----------------|3|----------|
Db|4|-----------------|----------------|----------------|4|----------|
Ab|-|-----------------|-----1---1-1-1--|-0---0----------|-|----------|
Db|-|-0---0---0-------|----------------|----------------|-|----------|
     PM|________________________________________|  

                    

   Gtr 2(Dist.)
   Riff C
      Q   Q   Q   q     q   Q   E E Q      Q   Q   q  q       Q   Q   Q    
eb|-|-----------------|-----------------|-----------------|-|-------------|
Bb|-|-----------------|-----------------|-----------------|-|-------------|
Gb|4|-----------------|-----------------|-----------------|3|-------------|
Db|4|-----------------|-----------------|-----------------|4|-------------|
Ab|-|-----------------|-----1---1-1-1---|--0---0----------|-|-------------|
Db|-|-0---0---0-------|-----------------|-----------------|-|-1---1---3---|
   PM|___________________________________________________________________|



   Gtr. 2(Dist.)
   Riff D
     Q   Q   Q   q       q   q   q   q       q   Q   Q   Q  
eb|------------------||------------------||------------------|
Bb|------------------||------------------||------------------|
Gb|------------------||*----------------*||------------------|
Db|------------------||*----------------*||------------------|
Ab|------------------||------------------||------------------|
Db|--0---0---0-------||------------------||------1---1---3---|



  Gtr.1(dist&reverb)
  Riff E1
//    Q   Q   Q   Q   Q   Q   Q   Q   Q   Q   Q   Q   Q   Q   Q   Q
||eb|---------------|---------------|---------------|----------------|
||Bb|---------------|---------------|---------------|----------------|
||Gb|---------------|---------------|---------------|----------------|
||Db|-0---0---0---0-|-0---0---0---0-|-0---0---0---0-|-0---0---0---0--|
||Ab|-0---0---0---0-|-0---0---0---0-|-0---0---0---0-|-0---0---0---0--|
||Db|-0---0---0---0-|-0---0---0---0-|-0---0---0---0-|-0---0---0---0--|
||  PM|_______________|               |_______________|  
||                       C|\\\\\\\|                       |\\\\\\\|
|| 
||   Gtr.2(dist)
||   Riff E2
||    Q   Q   Q   Q   Q   Q   Q   Q   Q   Q   Q   Q   Q   Q   Q   Q
||eb|---------------|---------------|---------------|----------------|
||Bb|---------------|---------------|---------------|----------------|
||Gb|---------------|---------------|---------------|----------------|
||Db|-0---0---0---0-|-0---0---0---0-|-0---0---0---0-|-0---0---0---0--|
||Ab|-0---0---0---0-|-0---0---0---0-|-0---0---0---0-|-0---0---0---0--|
||Db|-0---0---0---0-|-0---0---0---0-|-0---0---0---0-|-0---0---0---0--|
|| *PM|_______________|  
\\                       C|\\\\\\\\\\\\\\\\\\\\\\\\\\\\\\\\\\\\\\\\|
*Gradually lighten on palm mute




    Gtr.1(dist&reverb)
    Riff F
     Q   Q   Q   Q    Q   Q   Q   Q      Q   Q   Q   Q    Q   Q   Q   Q
eb||-12------12-----|-----------------||-10------12-----|-13------12-----||
Bb||-----10------10-|-10--13--12--13--||-----10------10-|-----10------10-||
Gb||*---------------|----------------*||*---------------|---------------*||
Db||*---------------|----------------*||*---------------|---------------*||
Ab||----------------|-----------------||----------------|----------------||
Db||----------------|-----------------||----------------|----------------||




    Gtr.2(dist.)
   Rhy Fig. 2
    Q   Q   H        Q   Q   Q   Q    Q   Q   H       Q   Q   Q  Q
eb|----------------|----------------|---------------|----------------|
Bb|----------------|----------------|---------------|----------------|
Gb|-10--10--10-----|-10--10--10--10-|-12--12--12----|-12--12--12\7---|
Db|-10--10--10-----|-10--10--10--10-|-12--12--12----|-12--12--12\7---|
Ab|-8---8---8------|-8---8---8---8--|-10--10--10----|-10--10--10\5---|
Db|-8---8---8------|-8---8---8---8--|-10--10--10----|-10--10--10\5---|


   Rhy Fig. 2 continued
    Q   Q   H        Q   Q   Q   Q   Q   Q   Q   Q   Q   Q   Q Q
eb|--------------|-----------------|---------------|----------------|
Bb|--------------|-----------------|---------------|----------------|
Gb|-5---5---5----|---5---5---5---5-|-5---5---5---5-|-5---5---5/10---|
Db|-5---5---5----|---5---5---5---5-|-5---5---5---5-|-5---5---5/10---|
Ab|-3---3---3----|---3---3---3---3-|-3---3---3---3-|-3---3---3/8----|
Db|-3---3---3----|---3---3---3---3-|-3---3---3---3-|-3---3---3/8----|



   Gtr.2(dist)
   Rhy Fig.3
    Q   Q   H       Q   Q   Q   Q    Q   Q   H       Q   Q   Q   E  E
eb|---------------|----------------|---------------|-------------------|
Bb|---------------|----------------|---------------|-------------------|
Gb|-10--10--10----|-10--10--10--10-|-10--12--12----|-12--12--12--12-12-|
Db|-10--10--10----|-10--10--10--10-|-10--12--12----|-12--12--12--12-12-|
Ab|-8---8---8-----|-8---8---8---8--|-8---10--10----|-10--10--10--10-10-|
Db|-8---8---8-----|-8---8---8---8--|-8---10--10----|-10--10--10--10-10-|



  Gtr.1(dist&reverb)
  Riff G1
//    w                  w                  h       H   +  W              
||eb|------------------|------------------|--------<12>-|(<12>)---------|
||Bb|------------------|------------------|-------------|---------------|
||Gb|------------------|------------------|-------------|---------------|
||Db|------------------|------------------|-------------|---------------|
||Ab|------------------|------------------|-------------|---------------|
||Db|------------------|------------------|-------------|---------------|
||
||  
|| Gtr.2(dist)
|| Riff G2      
||    Q   Q   H  +  Q  Q   Q   Q    Q   Q   Q   q    w  
||eb|------------|----------------|---------------|-----------------|
||Bb|------------|----------------|---------------|-----------------|
||Gb|-5---5---5--|-(5)\3---3------|---------------|-----------------|
||Db|-5---5---5--|-(5)\3---3---3--|-0---0---0-----|-----------------|
||Ab|-3---3---3--|-(3)\1---1---3--|-0---0---0-----|-----------------|
||Db|-3---3---3--|-(3)\1---1---3--|-0---0---0-----|-----------------|
\\                                  >   >   >

|C\=Crescendo
|> =Accent
|<>=Harmonic
Suggest correction
Give kudos to tab author, rate the tab!
1 2 3 4 5
comments
print report bad tab
guest
You may want to rate the tab now too:
select rating
Please do not post tabs as comments. Select "correction" instead!