Oops, an error
Loading. Please wait.
We have an official Papercut tab made by UG professional guitarists. Check out the tab »
×

Papercut Bass

version 7
version 7

Whole song

70 views 1 this week
no commentswrite comment
1 2 3 4 5
1 last vote to show rating
add to favorites
launch autoscroll
font size
0
reset
guitar tuner
backing track
0:00
0:00
Autoscroll
slow
fast
+/-
esc
set tempo
stop
Author
Difficulty
Tuning
novice
C# G# C# F#
About this tab version
I submitted this tab for a 4-strings bass, but Phoenix often plays this song with a 5-strings bass. However i think this is a great tab , and I hope you enjoy with it. Was this info helpful? Yes No
[Chorus]  

F#|---------------------------------------------| x3
C#|---------------------------------------------|
G#|---------------------------------------------|
C#|----0-0-0--8--7---3---3-3--3-3---4-----------|

F#|---------------------------------------------|
C#|---------------------------------------------|
G#|---------------------------------------------|
C#|----0-0-0--8--7---3---3-3--3-3-2-3-----------|

[Verse] x8

F#|---------------------------------------------| 
C#|---------------------------------------------|
G#|---------------------------------------------|
C#|----0-0-0----8--8-8-8-7-7----2-2-3-----------|

5th time

F#|---------------------------------------------| 
C#|---------------------------------------------|
G#|---------------------------------------------|
C#|----0-0-0----8--8-8-8-7-7--------------------|

[Chorus]  

F#|---------------------------------------------| x3
C#|---------------------------------------------|
G#|---------------------------------------------|
C#|----0-0-0--8--7---3---3-3--3-3---4-----------|

F#|---------------------------------------------|
C#|---------------------------------------------|
G#|---------------------------------------------|
C#|----0-0-0--8--7---3---3-3--3-3-2-3-----------|

[Verse] x8

F#|---------------------------------------------| 
C#|---------------------------------------------|
G#|---------------------------------------------|
C#|----0-0-0----8--8-8-8-7-7----1-1-2-----------|

5th time

F#|---------------------------------------------| 
C#|---------------------------------------------|
G#|---------------------------------------------|
C#|----0-0-0----8--8-8-8-7-7--------------------|

[Chorus]  

F#|---------------------------------------------| x3
C#|---------------------------------------------|
G#|---------------------------------------------|
C#|----0-0-0--8--7---3---3-3--3-3---4-----------|

F#|---------------------------------------------|
C#|---------------------------------------------|
G#|---------------------------------------------|
C#|----0-0-0--8--7---3---3-3--3-3-2-3-----------|

F#|---------------------------------------------| x3
C#|---------------------------------------------|
G#|---------------------------------------------|
C#|----0-0-0--8--7---3---3-3--3-3---4-----------|

F#|---------------------------------------------|
C#|---------------------------------------------|
G#|---------------------------------------------|
C#|----0-0-0--8--7---3---3-3--3-0-2-3-0-0-0-----|

[Bridge]  

F#|-----------------------| x3
C#|-----------------------|
G#|-----------------------|
C#|----0-2-3-0-0-0--------|

[Outro] x9

F#|----------------------------------------------------------------|
C#|----------------------------------------------------------------|
G#|----------------------------------------------------------------|
C#|----8-8-8--8--8--10-10--10--10-5-5-5--5--5--5-5--5--5-----------|

4th time

F#|----------------------------------------------------------------|
C#|----------------------------------------------------------------|
G#|-------------------------------------------10h12--10--8---------|
C#|----8-8-8--8--8--10-10--10--10-5-5-5--5--5----------------------|


************************************

| x   Dead note
| g   Grace note
| (n) Ghost note
| h   Hammer-on
| p   Pull-off
| r   Release
| >   Accented note
| t   Tapping
| b   Bend
| br  Bend release
| pb  Pre-bend
| pbr Pre-bend release
| /   Slide up
| \   Slide down
| ~   Vibrato
| s   Slap
| P   Pop
| PM  Palm mute
| TR  Trill
| N   Tremolo

************************************
Suggest correction
Give kudos to tab author, rate the tab!
1 2 3 4 5
comments
print report bad tab
guest
You may want to rate the tab now too:
select rating
Wanna post a correction for this tab? Suggest correction