Oops, an error
Loading. Please wait.

Papercut Bass Tab

version 7
1,789 views 1 this week
no commentswrite comment
1 2 3 4 5
please rate
add to favorites
launch autoscroll
font size
0
reset
guitar tuner
Autoscroll
slow
fast
+/-
esc
set tempo
stop
Help us to improve Ultimate-Guitar.com Take our survey!
×
Author
Difficulty
Tuning
novice
B E A D F# B
Chorus:
G:---------------------------|
D:---------------------------| x4
A:--------7-6-2-22-2---------|
E:---------------------------|
B:-2-2-2--------------3-3-4--|

Verse: (Part 1)
G:---------------------------|
D:---------------------------| x4
A:---------------------------|
E:--------5--555-4-4---------|
B:-2-2-2------------—-3-3-4--|

 (Part 2)
G:--------------------|
D:--------------------|
A:--------------------|
E:--------5--555-4-4--|
B:-2-2-2------------—-|

Verse (Part 1): x3

Chorus: x4

Verse (Part 1): x4

Verse (Part 2): x1

Verse (Part 1): x3

Chorus: x6

Post Chorus:
G:-------------------------------------------------------------------------|
D:-------------------------------------------------------------------------|
A:-------------------------------------------------------------------------|
E:-------------------------------------------------------------------------|
B:-2-2-2--3-3-4-2-2-2--3-3-4-2-2-2--3-4-4-2-2-2-2-2-2-2-2-2-2-2-2-2-2-2-2--|

Bridge:
G:------------------------------------------------|
D:------------------------------------------------| x9
A:------------------------------------------------|
E:-5-5-5--5--5-5-7-7--7-7-2-2-2--2--2-2-2-2--2-2--|
B:------------------------------------------------|

End:
G:--------------|
D:--------------|
A:--------------|
E:--------------|
B:-3-3-4-2-2-2--|

Don't blame me if i haven't selected the right tuning here on the page, but you 
have to tune it like: B,E,A,D,G.. ;)
Suggest correction
Give kudos to tab author, rate the tab!
1 2 3 4 5
comments
print report bad tab
guest
You may want to rate the tab now too:
select rating
Wanna post a correction for this tab? Suggest correction