Oops, an error
Loading. Please wait.

Papercut Tab

3,404 views 6 this week
3 commentsread comments
1 2 3 4 5
accurate
x 5
add to favorites
launch autoscroll
font size
0
reset
how to read this tab
guitar tuner
Autoscroll
slow
fast
+/-
esc
set tempo
stop
Help us to improve Ultimate-Guitar.com Take our survey!
×
Author
~~~~~~~~~~~~~~Ppr,kut~~~~~~~~~~~~~
band:linkin park
song: Ppr,kut
album: reanimation
      
 intro           00:12   
>E|------------------------------|
>A|------------------------------|
>D|------------------------------|
>G|--3p0----3p0----3p0----3p0----|
>B|--3p0----3p0----3p0----3p0----|
>D|--3p0----3p0----3p0----3p0----|

 chorus                    00:38
           ~~~~~~~~~ x3~~~~~~~~
>E|----------------------------||--------------------------------------|
>A|----------------------------||--------------------------------------|
>D|----------------------------||--------------------------------------|
>G|--88-88-8--7-7---3-3-3--0---||--8-88-8--7-7---10--10--10---3-3-3-0--|
>B|--88-88-8--7-7---3-3-3--0---||--8-88-8--7-7---10--10--10---3-3-3-0--|
>D|--88-88-8--7-7---3-3-3--0---||--8-88-8--7-7---10--10--10---3-3-3-0--|

>00:54        
>E|--------------------------|
>A|--------------------------|
>D|--------------------------|
>G|--0----3-0----3-0----3-0--|
>B|--0----3-0----3-0----3-0--|
>D|--0----3-0----3-0----3-0--|

>01:06        
>E|---------------------------------------------------------------------|
>A|---------------------------------------------------------------------|
>D|---------------------------------------------------------------------|
>G|--333-0-000-0-0-0-333-0-000-0-0-00-3-0-000-0-0-0-333-0-000-0-0-00-3-0|
>B|--333-0-000-0-0-0-333-0-000-0-0-00-3-0-000-0-0-0-333-0-000-0-0-00-3-0|
>D|--333-0-000-0-0-0-333-0-000-0-0-00-3-0-000-0-0-0-333-0-000-0-0-00-3-0|

>01:26         
>E|--------------|
>A|--------------|
>D|--------------|
>G|--3p0----3p0--|
>B|--3p0----3p0--|
>D|--3p0----3p0--|

>01:31         
>E|--------------------------------------------------------------|
>A|--------------------------------------------------------------|
>D|--------------------------------------------------------------|
>G|--333-0-000-0-0-0-333-0-000-0-0-00-3-0-000-0-0-0-333-0-000-0--|
>B|--333-0-000-0-0-0-333-0-000-0-0-00-3-0-000-0-0-0-333-0-000-0--|
>D|--333-0-000-0-0-0-333-0-000-0-0-00-3-0-000-0-0-0-333-0-000-0--|

                   (chorus)
 chorus                    01:44
   ~~~~~~~~~~~~~x3~~~~~~~~~~~~~
>E|----------------------------||--------------------------------------|
>A|----------------------------||--------------------------------------|
>D|----------------------------||--------------------------------------|
>G|--88-88-8--7-7---3-3-3--0---||--8-88-8--7-7---10--10--10---3-3-3-0--|
>B|--88-88-8--7-7---3-3-3--0---||--8-88-8--7-7---10--10--10---3-3-3-0--|
>D|--88-88-8--7-7---3-3-3--0---||--8-88-8--7-7---10--10--10---3-3-3-0--|

             bridge      02:13
>E|-------------------------------------|
>A|-------------------------------------|
>D|-------------------------------------|
>G|--3-3-3-0-0---3-3-3-0-0---3-3-3-0-0--|
>B|--3-3-3-0-0---3-3-3-0-0---3-3-3-0-0--|
>D|--3-3-3-0-0---3-3-3-0-0---3-3-3-0-0--|

             outro     02:23
>E|------------------------------------------------------------------|
>A|------------------------------------------------------------------|
>D|------------------------------------------------------------------|
>G|--5-5-5-5--5--5--5-5-5-5-5--------8-8-8-8--8--8--8-8-8-8-8--------|
>B|--5-5-5-5--5--5--5-5-5-5-5--------8-8-8-8--8--8--8-8-8-8-8--------|
>D|--5-5-5-5--5--5--5-5-5-5-5--------8-8-8-8--8--8--8-8-8-8-8--------| reapeat to end 

thts it hope u enjoy
any questions email me at alex_jon04@hotmail.com
Suggest correction
comments
print report bad tab
3 comments total.
0 reply
sexybassplayer8 211 wrote on March 19 2005, 12:00 am

this is a good attempt

0 reply
sexybassplayer8 211 wrote on March 21 2005, 12:00 am

infact this is an amazing tab its fits perfectly, you should be proud although the tunin is a bit off but still well done

-1 reply
Metaluya 289 wrote on March 31 2011, 08:29 pm

hey did anyone notice that the start piano bit is also on TESTAMENT OVER THE WALL
at the harmony part. listen to this..
"http://www.youtube.com/watch?v=lqlHxV9Pvcc" at 2:33
it is the same but slower.

guest
You may want to rate the tab now too:
select rating
Please do not post tabs as comments. Select "correction" instead!