Oops, an error
Loading. Please wait.

Part Of Me Tab

version 3
version 3

Whole song

Interactive

532 views 1 this week
1 commentread comment
1 2 3 4 5
worth learning
x 2
add to favorites
launch autoscroll
font size
0
reset
how to read this tab
guitar tuner
Tab Pro tools
  • play this tab
  • loop segment
  • change instrument
  • show fretboard
  • metronome
Autoscroll
slow
fast
+/-
esc
set tempo
stop
Difficulty
novice
artist:Linkin Park
Song: Part of me
Tabbed by: Seth Morgan
email: statefan501@earthlink.net
Tuning:
      E
      B
      Ab
      Eb
      Bb
      Eb

inrto
 E|------------------------------------------|
 B|------------------------------------------|
Ab|------------------------------------------|
Eb|------------------------------------------|
Bb|-------------6-6------6-6-6-6----6--------|
Eb|-5-5---5-5--------5-5---------------------|

Verse "part of me wont go away"...
 E|-4---4---4---4----7---7----2---2----4---4---4---4---6---6---2---2-----|
 B|---4---4---4---4----5---5----5---4----4---4---4---4---4---4---4---4---|
Ab|----------------------------------------------------------------------|x2
Eb|----------------------------------------------------------------------|
Bb|----------------------------------------------------------------------|
Eb|----------------------------------------------------------------------|

pre-chorus   "cut myself free willingly...
 E|----------|-------------------------------|
 B|----------|-------------------------------|
Ab|----------|-------------------------------|
Eb|-1-0--1-0-|-1-0--1-0-1-3------------------| x4
Bb|-1-0--1-0-|-1-0--1-0-1-3------------------|
Eb|-1-0--1-0-|-1-0--1-0-1-3------------------|

chorus  "I feel it every day"...
 E|------------------------------------------------------------|
 B|------------------------------------------------------------|
Ab|--------------8-8---8-8-8-8-----------------2-2---2-2-3-----|
Eb|-5-5---5-5----8-8---8-8-8-8-----5-5---5-5---2-2---2-2-3-----| x2
Bb|-5-5---5-5----6-6---6-6-6-6-----5-5---5-5---0-0---0-0-1-----|
Eb|-5-5---5-5----------------------5-5---5-5-------------------|

Pre verse "freedom can be frightining...
 E|------------------------------------|
 B|------------------------------------|
Ab|------------------------------------|
Eb|------------------------------------|
Bb|-------------6-6-------6-6-6-6------|
Eb|-5-5----5-5--------5-5--------------|

Verse "once it's been dealt with"...
 E|-4---4---4---4---6---6---2---2-|--4---4---4---4---7---7---2---2---|
 B|---4---4---4---4---4---4---4---|4---4---4---4---4---5---5---5---4-|
Ab|-------------------------------|----------------------------------| x4
Eb|-------------------------------|----------------------------------|
Bb|-------------------------------|----------------------------------|
Eb|-------------------------------|----------------------------------|

bridge 1 "alive in me, inside of me"
 E|------------------------------------------------------|
 B|------------------------------------------------------|
Ab|-7-7--7-7--8-7-----10---5--7--8-8--8-8--8-8--8-8--10--| x4
Eb|-7-7--7-7--8-7-----10---5--7--8-8--8-8--8-8--8-8--10--|
Bb|-5-5--5-5--6-5------8---3--5--6-6--6-6--6-6--6-6---8--|
Eb|------------------------------------------------------|

bridge 2 "everywere I look around... (sounds acoustic)
 E|-4---4---4---4---7---7---2---2---4---4---4---4---6---6---2---2-----|
 B|---4---4---4---4---5---5---5---4---4---4---4---4---4---4---4---4---|
Ab|-------------------------------------------------------------------|
Eb|-------------------------------------------------------------------|
Bb|-------------------------------------------------------------------|
Eb|-------------------------------------------------------------------|
 Thats it, have fun. Listin to the song to get it right.
comments
We did not receive enough feedback on this tab! Please rate:
print report bad tab
1 2 3 4 5
1 comment total.
0 reply
dark_falco3000 wrote on September 4 2006, 09:35 pm

Tune your guitar lower (Drop Db)

I want to post or [tab]
guest
You may want to rate the tab now too:
select rating
Please do not post tabs as comments. Select "correction" instead!