Oops, an error
Loading. Please wait.

Points Of Authority Tab

version 1
version 1

Whole song

Interactive

81,934 views 81 this week
13 commentsread comments
1 2 3 4 5
accurate
x 38
add to favorites
launch autoscroll
font size
0
reset
how to read this tab
guitar tuner
Autoscroll
slow
fast
+/-
esc
set tempo
stop
Help us to improve Ultimate-Guitar.com Take our survey!
×
Author
Tuning
D A D G B E
Title:Points Of Authority
Tunning:Dropped D one half step down
C# G# C# F# A# D#


[Intro]

E|-----7-------7-------7-------7-------7-------7-------7-------7------------|
B|---8---8---8---8---8---8---8---8---8---8---8---8---8---8---8---8----------|
G|-9-------9-------9-------9-------9-------9-------9-------9----------------|
D|--------------------------------------------------------------------------|
A|--------------------------------------------------------------------------|
D|--------------------------------------------------------------------------|


E|--------------------------------------------------------------------------|
B|--------------------------------------------------------------------------|
G|--------------------------------------------------------------------------|
D|-2-2-0h3-3-0h2-2h3-0h2-2-0h3-3-2-2-0-0h3--2-2-0h3-3-0h2-2h3-0h2-2-0h3-----|
A|-2-2-0h3-3-0h2-2h3-0h2-2-0h3-3-2-2-0-0h3--2-2-0h3-3-0h2-2h3-0h2-2-0h3-----|
D|-2-2-0h3-3-0h2-2h3-0h2-2-0h3-3-2-2-0-0h3--2-2-0h3-3-0h2-2h3-0h2-2-0h3-----|


[Verse]

E|------------------------------------------|
B|------------------------------------------|
G|------------------------------------------|  
D|2-2-2h3-3--0h2-2h3--0h2-2-2h3--x-2-x-0-x-3|
A|2-2-2h3-3--0h2-2h3--0h2-2-2h3--x-2-x-0-x-3|
D|2-2-2h3-3--0h2-2h3--0h2-2-2h3--x-2-x-0-x-3|(x5)


[Chorus]

E|---------------------------------------|
B|---------------------------------------|
G|----5-------5-------5-------5----------|
D|2---3---2---3---2---3---2---3---2--0--3|
A|2---3---2---3---2---3---2---3---2--0--3|
D|2---3---2---3---2---3---2---3---2--0--3|


************************************

| x  Dead note
| h  Hammer-on

************************************
Suggest correction
comments
print report bad tab
13 comments total. Showing first comments. show 1 bad comment
0 reply
[ibanez-guitar] 0 wrote on May 15 2002, 12:00 am

THIS TAB IS THE BEST I'VE SEEN THE WEB THANKS ALOT KNOW I WILL BE ABLE TO PLAY IT THIS TAB RULEZ IT SHOULD BE NUMBER 1 IN THE TOP 100 BECAUSE IT JUST ROCKS AND RULEZ IT IS THE BEST AND I DON'T KNOW WHY IT IS 4 STAR IF IT IS PERFECT THAT'S THE WAY BRAD DELSON OF LINKIN PARK SHOULD PLAY IT BECAUSE IT SOUNDS VERY GOOD THANKS A LOT.
P.D.
ZAPPP IS GAY

0 reply
linkzs2 10 wrote on August 27 2002, 12:00 am

hey the intro, there is no intro ass

guest
You may want to rate the tab now too:
select rating
Wanna post a correction for this tab? Suggest correction