Oops, an error
Loading. Please wait.

Points Of Authority Tab

version 3
version 3

Whole song

Interactive

6,166 views 3 this week
9 commentsread comments
1 2 3 4 5
accurate
x 3
add to favorites
launch autoscroll
font size
0
reset
how to read this tab
guitar tuner
Tab Pro tools
  • play this tab
  • loop segment
  • change instrument
  • show fretboard
  • metronome
×
Best way to learn
"Points Of Authority"
Autoscroll
slow
fast
+/-
esc
set tempo
stop
Band: Linkin Park
Song: Points Of Authority
Tabbed by: Nick Fairchild
E-mail: Nick_f@Btinternet.com

E-mail any mistsakes! Enjoy..
Tuning: Down a half step and drop D (Db Ab Db Gb Bb eb)
Pm. = Palm Mute

Intro:
                                    *          *
Db|-2-2--222--2-2--0-3-0--2-2--222--|-22-00-3--|
Ab|-2-2--222--2-2--0-3-0--2-2--222--|-22-00-3--|
Db|-2-2--222--2-2--0-3-0--2-2--222--|-22-00-3--|
         Pm.                   Pm.
Play twice softly, but on the second time round dont play the * bit at the end.

Pre-Verse:

Db|-2-2--222--2-2--0-3-0--2-2--222--22-00-3--|  
Ab|-2-2--222--2-2--0-3-0--2-2--222--22-00-3--|   
Db|-2-2--222--2-2--0-3-0--2-2--222--22-00-3--|
         Pm.                   Pm.
Play this harder than the intro, then play it again softly when Chester says: "You love the way I look at you".

verse:
                                    *          *
Db|-2-2--222--2-2--0-3-0--2-2--222--|-22-00-3--| 
Ab|-2-2--222--2-2--0-3-0--2-2--222--|-22-00-3--| 
Db|-2-2--222--2-2--0-3-0--2-2--222--|-22-00-3--|
         Pm.                   Pm.
Played many times, and at the end/before the chorus, play this instead of the * bit:

Db|-2--0--3-|
Ab|-2--0--3-|
Db|-2--0--3-|

Chorus:
            *         *
Db|-2----3--|-2--0--3-|
Ab|-2----3--|-2--0--3-|
Db|-2----3--|-2--0--3-|
    
Play through 4 times, at the end of the fourth time play the * bit. Let the first 2 chords ring for a bit. 

Then:

Verse riff (without * bit)
Chorus riff (played 4X without * bit)
Ending is the verse riff played twice, then it is elctronicaly altered by the DJ!

comments
We did not receive enough feedback on this tab! Please rate:
print report bad tab
1 2 3 4 5
9 comments total. Showing first comments.
0 reply
Rage wrote on February 9 2002, 12:00 am

You left out the beginning of the Intro.

0 reply
Rage wrote on February 9 2002, 12:00 am

You left out the beginning of the Intro, and everything else is wrong.

0 reply
Damnit_Daniel wrote on February 18 2002, 12:00 am

its off

I want to post or [tab]
guest
You may want to rate the tab now too:
select rating
Please do not post tabs as comments. Select "correction" instead!