Oops, an error
Loading. Please wait.

Powerless Chords

version 1
version 1

Whole song

16,961 views 3 this week
1 commentread comment
1 2 3 4 5
accurate
x 4
add to favorites
launch autoscroll
font size
0
reset
transpose
0
reset
display chords
guitar tuner
Tab Pro tools
  • play this tab
  • loop segment
  • change instrument
  • show fretboard
  • metronome
×
Best way to learn
"Powerless"
Autoscroll
slow
fast
+/-
esc
set tempo
stop
Contributor
Thsi is new song from the new album called "LIVING THINGS"

NORE : Caop On 1st.

enjoy the music it's really cool song!


intro + verse (with capo) :

e|------------------------------|
B|------------------------------|
G|------------------------------|
D|----2------5--9--7--5--7--2---|    reapet untill the chours.
A|----2------5--9--7--5--7--2---|
E|----0------3--7--5--3--5--0---|

chours:


And You Held it All......Carless ..Fall
     G          D          E        C

Secnod time :
     G          D          Bm       Bm


e|------------------------------|
B|------------------------------|
G|------------------------------|
D|----2------5--9--7--5--7--2---|    reapet untill the chours.
A|----2------5--9--7--5--7--2---|
E|----0------3--7--5--3--5--0---|


chors 2:


chours:


And You Held it All......Carless ..Fall
     G           D          Em      C

Secnod time :
     G          D          Bm      Bm



Bridge :

e|---------------------------------|
B|---------------------------------|
G|----9-------14--12-------10------|
D|----x---x8--x---x----x4--x--x4---|   repaet
A|----7-------12--10-------9-------|
E|---------------------------------|


e|---------------------------------|
B|---------------------------------|
G|----9-------14--12-------10------|
D|----x---x8--x---x----x8--x--x8---|   repaet
A|----7-------12--10-------9-------|
E|---------------------------------|





chours:


And You Held it All......Carless ..Fall
     G           D          Em      C

Secnod time :
     G          D          Bm      Bm


end with bridge till the end.
comments
print report bad tab
1 comment total.
0 reply
ZepFloydRock101 wrote on July 6 2012, 10:02 pm

Not really right. First off it's Drop D, as your missing the lower D# chord. You don't need a capo unless you are very lazy.

First part:
e|------------------------------|
B|------------------------------|
G|-----------5--3---------------|
D|----3--1---5--3--6-5--3-------| repeat to chorus
A|----3--1---3--1--6-5--3-------|
E|----3--1---------6-5--3-------|

I'll tab out the rest when I have more free time. Great song.

I want to post or [tab]
guest
You may want to rate the tab now too:
select rating
Please do not post tabs as comments. Select "correction" instead!