Oops, an error
Loading. Please wait.

Program Tab

516 views 1 this week
1 commentread comment
1 2 3 4 5
please rate
add to favorites
launch autoscroll
font size
0
reset
how to read this tab
guitar tuner
Autoscroll
slow
fast
+/-
esc
set tempo
stop
Help us to improve Ultimate-Guitar.com Take our survey!
×
Contributor
Difficulty
Tuning
intermediate
C# G# C# F# A# D#
-----------------------------------------------------------------
Program - Linkin Park
-----------------------------------------------------------------
Tabbed by: Brandon Yancar (LPFan117)
Email:

Tuning: Drop C#/Db

Guitar 1 = Clean, Slight Delay
Guitar 2 = Heavy Distortion
Guitar 3 = Light Distortion, Reverb

I made this by hand by listening to the song by ear, it's an amazing instrumental, 
I assure you it's 100% correct. Enjoy, you won't find these elsewhere. This is my first tab, ever.

eb|-------10-10-----10-10-----------7-7-----7-7---| played from intro
Bb|---8---------8-8-------8----8--------8-8-----8-| through whole song
Gb|-9---9-----------------------------------------| just listen for it
Db|-------------------------10---10---------------|    
Ab|-----------------------------------------------|      (Guitar 1)
Db|-----------------------------------------------|

eb|-----------------|
Bb|-----------------|
Gb|-----------------|
Db|-2-3-0-2-3-0-2-3-|  (Guitar 2)
Ab|-2-3-0-2-3-0-2-3-|
Db|-2-3-0-2-3-0-2-3-|

eb|-------------------------------------|
Bb|-------------------------------------|
Gb|-------------------------------------| (Guitar 2)
Db|-2------4------4------5-------7------|
Ab|-2-(x8)-2-(x4)-4-(x4)-3-(x12)-5-(x4)-|
Db|-2------2------4------5-------5------|

eb|---------------------------------------------|
Bb|---------------------------------------------|
Gb|--------------------------9-9-12-9-9-12-9-12-|
Db|----------------------OR---------------------| (Guitar 3)
Ab|-7-7-10-7-7-10-7-10-------7-7-10-7-7-10-7-10-| in the background,
Db|---------------------------------------------| may be hard to hear.
     actual part^             optional part^

Thank you for viewing! Hope you like playing the song now.
comments
We did not receive enough feedback on this tab! Please rate:
print report bad tab
1 2 3 4 5
1 comment total.
0 reply
damianopolizz 14 wrote on March 15 2015, 08:37 am

Nicely done!

I want to post or [tab]
guest
You may want to rate the tab now too:
select rating
Please do not post tabs as comments. Select "correction" instead!