Oops, an error
Loading. Please wait.

Pushing Me Away Tab

version 9
10,026 views 9 this week
no commentswrite comment
1 2 3 4 5
x 8
add to favorites
launch autoscroll
font size
0
reset
how to read this tab
guitar tuner
Autoscroll
slow
fast
+/-
esc
set tempo
stop
Help us to improve Ultimate-Guitar.com Take our survey!
×
Artist - Linkin Park
Title - Pushing Me Away (Remix)
Album - Reanimation/Live in Texas
Tab Author - Brian Roman
Tuning - C# G# C# F# A# D# (Db Ab Db Gb Bb Eb)

Here is a really good song by Linkin Park. It is one of the only good remixed
songs that they made and is one of the only songs that have a guitar in them.
I tryed to layout the measures in exact order. If some aren't right or are hard
to read, email me at pilot4jc@msn.com.
 

Guitar 1: Intro/Verse #1
|-----------------------------------------------------------|
|-----------------------------------------------------------| Played by a keyboard, but could 
|-----------------------------------------------------------| also be played by guitar.
|-6---10----9--------------4--6---10----9--------------4----|
|-7---12---10---15--17-17--5--7---12---10---15--17-17--5----|
|-----------------------------------------------------------|


Guitar 2: Verse #1/Chorus
|-7-----7-----7---5-----5-----5------|
|---5-5---5-5---5---3-3---3-3---3----|
|------------------------------------|
|------------------------------------|
|------------------------------------|
|------------------------------------|


Guitar 2: Verse #2/Chorus #1
|--------------------------------------------------|
|--------------------------------------------------| Played between Verse 1 and 2 in the
|--------------------------------------------------| beginning, through verse 2, through
|-2-2----------------------------------------------| the first chorus, and the verse
|-2-2----------------------------------------------| after the first chorus.
|-2-2-222222222222222222222222222222222222222222---| 


Pre-Chorus
|-7-----7-----7---5-----5-----5------|
|---5-5---5-5---5---3-3---3-3---3----|
|------------------------------------|
|------------------------------------|
|------------------------------------|
|------------------------------------|


Guitar 1: Chorus #2
|--------------------------|
|--------------------------|
|-----5--------------------|
|-2---5---5---7---9-9-0----| 
|-2---3---5---7---9-9-0----|
|-2-------5---7---9-9-0----|


Guitar 2: Chorus #2
|-7-----7-----7---5-----5-----5------|
|---5-5---5-5---5---3-3---3-3---3----|
|------------------------------------|
|------------------------------------|
|------------------------------------|
|------------------------------------|


Bridge
|-7-----7-----7---5-----5-----5------|
|---5-5---5-5---5---3-3---3-3---3----|
|------------------------------------|
|------------------------------------| Played a quite a few times
|------------------------------------|
|------------------------------------|

                                 --------------------(Look like 1's, but are 11's)
|--------------------------------|-------------|
|-------------------------------\/-------------|
|99999999999999999999999999991111111-----------| Not exact amount of times. You get the idea.
|xxxxxxxxxxxxxxxxxxxxxxxxxxxxxxxxxxx-----------|
|77777777777777777777777777779999999-----------|
|----------------------------------------------|



Guitar 1 after bridge and ending
|-----------------------|
|-----------------------|
|----5------------------|
|-2--5--5--7--9-9--0----|
|-2--3--5--7--9-9--0----|
|-2-----5--7--9-9--0----|



Guitar 2 after bridge and ending
|------------------------------------------------------------------|
|------------------------------------------------------------------|
|999999999999-1111111111-121212121212121212-14141414141414141414---| Not exact amount of times.
|xxxxxxxxxxxx-xxxxxxxxx--xxxxxxxxxxxxxxxxxx-xxxxxxxxxxxxxxxxxxxx---|
|777777777777-999999999--101010101010101010-12121212121212121212---|
|------------------------------------------------------------------|


|------------------------------------------|
|------------------------------------------|
|1212121212121212-10101010-----------------|
|xxxxxxxxxxxxxxxx-xxxxxxx------------------|
|1010101010101010-9999999------------------|
|------------------------------------------|


Email me at pilot4jc@msn.com if you have trouble understanding it.


***************************************************************************************
* Generated using Power Tab Editor by Brad Larsen - http://powertab.guitarnetwork.org *
***************************************************************************************
Suggest correction
comments
print report bad tab
guest
You may want to rate the tab now too:
select rating
Wanna post a correction for this tab? Suggest correction