Oops, an error
Loading. Please wait.

Qwerty Tab

version 1
version 1

Whole song

39,602 views 30 this week
20 commentsread comments
1 2 3 4 5
x 24
add to favorites
launch autoscroll
font size
0
reset
how to read this tab
guitar tuner
Autoscroll
slow
fast
+/-
esc
set tempo
stop
Help us to improve Ultimate-Guitar.com Take our survey!
×
Author
Difficulty
intermediate
Linkin Park
Querty 
Db,Ab,Db,Gb,Bb,Eb
p=pulloff 
h=hammer-on
b=bend

Intro Part 1(slightly palm mute all)

Eb|--------------------------------|
Bb|--------------------------------|
Gb|--------------------------------|
Db|-0--1p0--2h3p0-0-7p0-0--3--2--1-|
Ab|-0--1p0--2h3p0-0-7p0-0--3--2--1-|
Db|-0--1p0--2h3p0-0-7p0-0--3--2--1-|

Eb|---------------|
Bb|---------------|
Gb|---------------| 
Db|-0---0---0---0-| <- on last time through.
Ab|-0---0---0---0-|
Db|-0---0---0---0-|

Intro Part 2/Verse 

Eb|---------------------------------|
Bb|---------------------------------|
Gb|---------------------------------|<- only on first time through
Db|---------------------------------|the verse, play this.      
Ab|---------------------------------|
Db|-0-12-13-0-12-13-0-12-13-0-12-13-|


Eb|---------------------------------------------|
Bb|---------------------------------------------|
Gb|---------------------------------------------|
Db|---------------------------------------------|
Ab|---------------------------------------------|
Db|-0-12-13-0-12-13-0-12-13-0-12-13-13-12-10-12-|

Eb|---------------------------------|
Bb|---------------------------------|
Gb|---------------------------------|
Db|---------------------------------|
Ab|---------------------------------|
Db|-0-12-13-0-12-13-0-12-13-0-12-13-|



Eb|---------------------------------------------|
Bb|---------------------------------------------|
Gb|---------------------------------------------|
Db|---------------------------------------------|
Ab|---------------------------------------------|
Db|-0-12-13-0-12-13-0-12-13-0-12-13-13-15-13-12-|

Eb|---------------------------------|
Bb|---------------------------------|
Gb|---------------------------------|
Db|---------------------------------|
Ab|---------------------------------|
Db|-0-12-13-0-12-13-0-12-13-0-12-13-|

Mid-Verse/Pre-Chorus

Eb|-----------------------------|
Bb|-----------------------------|
Gb|-----------------------------|
Db|-8----------------7-------10-|
Ab|-8----------------7-------10-|
Db|-8----------------7-------10-|


Chorus

Eb|--------------------------------------------------------------------------------|
Bb|--------------------------------------------------------------------------------|
Gb|-----------------------------------------------------------------------------5b-|
Db|-0--0-12--0--7-0--3--5--0--0-12--0--8--7--0--0-12--0--7-0--3--5--0--0-12--1--x--| play twice
Ab|-0--0-12--0--7-0--3--5--0--0-12--0--8--7--0--0-12--0--7-0--3--5--0--0-12--1--3b-|
Db|-0--0-12--0--7-0--3--5--0--0-12--0--8--7--0--0-12--0--7-0--3--5--0--0-12--1-----|

Eb|--------------------------------------------------------------------------------------|
Bb|--------------------------------------------------------------------------------------|
Gb|--------------------------------------------------------------------------------------|
Db|-0--0-12--0--7-0--3--5--0--0-12--0--8--7--5----------------8-------1-------0--0--0--0-| 
Ab|-0--0-12--0--7-0--3--5--0--0-12--0--8--7--5----------------8-------1-------0--0--0--0-|
Db|-0--0-12--0--7-0--3--5--0--0-12--0--8--7--5----------------8-------1-------0--0--0--0-|

After 2nd Chorus before going back into the intro part 1 riff, play only 3 000's and then this:

Eb|---------|
Bb|---------|
Gb|---------|
Db|-x-x-x-x-|
Ab|-x-x-x-x-|
Db|-x-x-x-x-|

Intro part 1 riff 

Pre-Chorus

Intro part 1 riff- only once

Pre-Chorus

Eb|-------------------------------------|
Bb|-------------------------------------|
Gb|-----------------------------------5-|
Db|-0~~~~~~~~~~~~~~~0~~~~~~~~~~~~~~~~~x-|
Ab|-0~~~~~~~~~~~~~~~0~~~~~~~~~~~~~~~~~3-|
Db|-0~~~~~~~~~~~~~~~0~~~~~~~~~~~~~~~~~--|

Chorus

End

Eb|-----------------------------------|
Bb|-----------------------------------|
Gb|-----------------------------------|
Db|-0-0-0-0-0-0-0-0-0-0-0-0-0-0-0-0-0-|
Ab|-0-0-0-0-0-0-0-0-0-0-0-0-0-0-0-0-0-|
Db|-0-0-0-0-0-0-0-0-0-0-0-0-0-0-0-0-0-|
Suggest correction
comments
print report bad tab
20 comments total. Showing first comments.
0 reply
mitchftw 132 Aug 17, 2006 12:10 PM

there are supposed to be 8 hits, i only put 4, my bad.

+1 reply
mitchftw 132 Aug 17, 2006 12:13 PM

on the intro part 1

-1 reply
Crimsonashes 303 Aug 23, 2006 02:37 PM

good tab tho...considering u did it all from a audio clip..=)

guest
You may want to rate the tab now too:
select rating
Wanna post a correction for this tab? Suggest correction