Oops, an error
Loading. Please wait.

Qwerty Tab

version 2
version 2

Whole song

4,152 views 6 this week
13 commentsread comments
1 2 3 4 5
accurate
x 8
add to favorites
launch autoscroll
font size
0
reset
how to read this tab
guitar tuner
Tab Pro tools
  • play this tab
  • loop segment
  • change instrument
  • show fretboard
  • metronome
×
Best way to learn
"Qwerty"
Autoscroll
slow
fast
+/-
esc
set tempo
stop
Contributor
Tuning
D A D G B E
Song: Qwerty
Artist: Linkin Park
Tabbed by: LPPanther

Notes: This is a new song by Linkin Park played at the Summer Sonic Festival in Japan. 
is scheduled to be on their next album due out by the end of 2006. For more info on the 
and to find out where to get the live recording of it go to http://www.lpfuse.co.uk
Thanks to Astat for help with the intro.

1
eb---------------------------|
Bb---------------------------|
Gb---------------------------|
Db--0--3p0--3p0-7-0-3--2--1--|
Ab--0--3p0--3p0-7-0-3--2--1--|
Db--0--3p0--3p0-7-0-3--2--1--|

Play 8 times

2
eb--------------------------|
Bb--------------------------|
Gb--------------------------|
Db--0--0--0--0--0--0--0--0--|
Ab--0--0--0--0--0--0--0--0--|
Db--0--0--0--0--0--0--0--0--|

3
eb-----------------------------------|
Bb-----------------------------------|
Gb-----------------------------------|
Db-----------------------------------|
Ab-----------------------------------|
Db--0h12h13-0h12h13-0h12h13-0h12h13--|

4
eb-----------------------------------------------|
Bb-----------------------------------------------|
Gb-----------------------------------------------|
Db-----------------------------------------------|
Ab-----------------------------------------------|
Db--0h12h13-0h12h13-0h12h13-0h12h13-13\12-10h12--|

5
eb-----------------------------------|
Bb-----------------------------------|
Gb-----------------------------------|
Db-----------------------------------|
Ab-----------------------------------|
Db--0h12h13-0h12h13-0h12h13-0h12h13--|

6
eb-----------------------------------------------|
Bb-----------------------------------------------|
Gb-----------------------------------------------|
Db-----------------------------------------------|
Ab-----------------------------------------------|
Db--0h12h13-0h12h13-0h12h13-0h12h13-13h15p13p12--|

Repeat 3 through 6 three times then go to 7

7
eb--------------|
Bb--------------|
Gb--------------|
Db--8----7--10--|
Ab--8----7--10--|
Db--8----7--10--|

Repeat 4

Repeat 6

Repeat 7


*Chorus*
eb-------------------|
Bb-------------------|
Gb-------------------|
Db--0--12-0--7--3-5--|
Ab--0--12-0--7--3-5--|
Db--0--12-0--7--3-5--|


eb-----------------|
Bb-----------------|
Gb-----------------|
Db--0--12-0--8--7--|
Ab--0--12-0--8--7--|
Db--0--12-0--8--7--|


eb-------------------|
Bb-------------------|
Gb-------------------|
Db--0--12-0--7--3-5--|
Ab--0--12-0--7--3-5--|
Db--0--12-0--7--3-5--|

eb------------------|
Bb------------------|
Gb--------------5b--|
Db--0--12-0--1--x---|
Ab--0--12-0--1--3b--|
Db--0--12-0--1------|


eb-------------------|
Bb-------------------|
Gb-------------------|
Db--0--12-0--7--3-5--|
Ab--0--12-0--7--3-5--|
Db--0--12-0--7--3-5--|


eb----------------------------|
Bb----------------------------|
Gb----------------------------|
Db--0--12-0--8--7--5----8--1--|
Ab--0--12-0--8--7--5----8--1--|
Db--0--12-0--8--7--5----8--1--|

*End Chorus*


eb--------------|
Bb--------------|
Gb--------------|
Db--0--0--0--0--|
Ab--0--0--0--0--|
Db--0--0--0--0--|

Repeat 3 through 6 two times then go to 7

Repeat Chorus


eb-----------------|
Bb-----------------|
Gb-----------------|
Db--0--0--0--0000--|
Ab--0--0--0--0000--|
Db--0--0--0--0000--|
             pm--

Repeat 1 eight times

Repeat 7

Repeat 1 twice

Repeat 7


eb------------------------|
Bb------------------------|
Gb--------------------5b--|
Db--0--------0--------x---|
Ab--0--------0--------3b--|
Db--0--------0------------|

Repeat Chorus


eb-----------------|
Bb-----------------|
Gb-----------------|
Db--0--0--0--0--0--|
Ab--0--0--0--0--0--|
Db--0--0--0--0--0--|
comments
print report bad tab
13 comments total. Showing first comments.
0 reply
mitchftw wrote on August 17 2006, 12:14 pm

just a few things wrong, refer to my tab, but other than that nice job

0 reply
LPPanther wrote on August 19 2006, 09:41 pm

Hard to tell what's exactly right and wrong off an unmastered live recording. This is what I feel is closest to correct.

0 reply
METSOAD wrote on August 20 2006, 01:08 pm

this looks right, its also a great song

I want to post or [tab]
guest
You may want to rate the tab now too:
select rating
Please do not post tabs as comments. Select "correction" instead!