Oops, an error
Loading. Please wait.

Qwerty Tab

version 3
version 3

Whole song

1,209 views 1 this week
2 commentsread comments
1 2 3 4 5
please rate
add to favorites
launch autoscroll
font size
0
reset
how to read this tab
guitar tuner
Autoscroll
slow
fast
+/-
esc
set tempo
stop
Help us to improve Ultimate-Guitar.com Take our survey!
×
Author
Difficulty
intermediate
           Song:Qwerty
           Band:Linkin Park

           S = slide             INTRO

     E|-------------------------------------------------------------|
     B|-------------------------------------------------------------|
     G|-------------------------------------------------------------|
     D|--0-0-0-0--7-3-2-1--------------0----0----0----0-------------|
     A|--0-0-0-0--7-3-2-1---x-8--------0----0----0----0-----x-2-----|
     D|--0-0-0-0--7-3-2-1--------------0----0----0----0-------------|


                               VERSE
     |-------------------------------------------------------------|
     |-------------------------------------------------------------|
     |-------------------------------------------------------------|
     |-------------------------------------------------------------|
     |-------------------------------------------------------------|
     |-0-12-13-0-12-13-0-12-13-0-12-13-0-12-13-0-12-13-10-12-------|

                               VERSE
     |-------------------------------------------------------------|
     |-------------------------------------------------------------|
     |-------------------------------------------------------------|
     |---8--------7-----s-----10-----------------------------------|
     |---8--------7-----s-----10-----------------------------------|
     |---8--------7-----s-----10-----------------------------------|
                               VERSE

     |-------------------------------------------------------------|
     |-------------------------------------------------------------|
     |-------------------------------------------------------------|
     |-------------------------------------------------------------|
     |-------------------------------------------------------------|
     |-0-12-13-0-12-13-0-12-13-0-12-13-0-12-13-0-12-13-16-13-------|


                               COURSE
     |-------------------------------------------------------------|
     |-------------------------------------------------------------|
     |----------------------------------5b-------------------------|
     |--0-0-0-0-7-5-0---0-0-0-7-3-s-5----x-------------------------|
     |--0-0-0-0-7-5-0---0-0-0-7-3-s-5---3b-------------------------|
     |--0-0-0-0-7-5-0---0-0-0-7-3-s-5------------------------------|

                              END PART
     |-------------------------------------------------------------|
     |-------------------------------------------------------------|
     |-------------------------------------------------------------|
     |--0-0-0-0--7-3-2-1--------------0--------------0-------------|
     |--0-0-0-0--7-3-2-1--------------0--------------0-------------|
     |--0-0-0-0--7-3-2-1--------------0--------------0-------------|

   Just play alonge with the song......enjoy
Suggest correction
Give kudos to tab author, rate the tab!
1 2 3 4 5
comments
print report bad tab
2 comments total.
0 reply
Seth Shadows 4,623 wrote on March 10 2007, 11:25 am

#1, Learn How to spell Chorus
#2, decent tab =) Good job.

0 reply
someone guy 55 wrote on June 28 2008, 04:44 pm

good tab

guest
You may want to rate the tab now too:
select rating
Wanna post a correction for this tab? Suggest correction