Oops, an error
Loading. Please wait.

Qwerty Tab

version 4
version 4

Whole song

12,142 views 15 this week
3 commentsread comments
1 2 3 4 5
excellent!
x 6
add to favorites
launch autoscroll
font size
0
reset
how to read this tab
guitar tuner
Tab Pro tools
  • play this tab
  • loop segment
  • change instrument
  • show fretboard
  • metronome
×
Best way to learn
"Qwerty"
Autoscroll
slow
fast
+/-
esc
set tempo
stop
Contributor
Hey This Is My First Tab, So Go Easy On The Insults.
 Anyway I felt That None Of The Other QWERTY Tabs Sounded Right So I attempted It. 
The Intro Might Be Difficult To Grasp But The rest Is Easy.
 Good Luck. Oh And Feel Free To Comment.





Intro

D#|----------------------------|
A#|----------------------------|
F#|----------------------------|
C#|0--1p0-0--2h3p0--7--0--3-2-1|  X8
G#|0--1p0-0--2h3p0--7--0--3-2-1|
C#|0--1p0-0--2h3p0--7--0--3-2-1|




Interlude 1

D#|----------------------|
A#|----------------------|
F#|----------------------|   X2
C#|0--0--0--0--0--0--0--0|
G#|0--0--0--0--0--0--0--0|
C#|0--0--0--0--0--0--0--0|




Verse 1

D#|-------|      |-----------------------------------|
A#|-------|      |-----------------------------------|
F#|-------| X4   |-----------------------------------|
C#|-------|      |-----------------------------------|
G#|-------|      |-----------------------------------|
C#|0-12-13|      |0-12-13-0-12-13-0-12-13-13-12-10-12|     |
                                                         |X3
D#|-------|      |-----------------------------------|     |
A#|-------|      |-----------------------------------|
F#|-------| X4   |-----------------------------------|
C#|-------|      |-----------------------------------|
G#|-------|      |-----------------------------------|
C#|0-12-13|      |0-12-13-0-12-13-0-12-13-13-15-13-12|




Pre-Chorus 1

D#|--------------|
A#|--------------|
F#|--------------|     Don't Let 10 Ring First Time Round.
C#|8~~~~~~7~~~~10|
G#|8~~~~~~7~~~~10|
C#|8~~~~~~7~~~~10|




Chorus 1

D#|---------------|     |-----------------|
A#|---------------|     |-----------------|
F#|---------------|     |-----------------|
C#|0-0-12-0-3--5--| X3  |8-----7-----10---|
G#|0-0-12-0-3--5--|     |8-X8--7-X4--10-X4|
C#|0-0-12-0-3--5--|     |8-----7-----10---|

D#|---------------|     |-----------------|
A#|---------------|     |-----------------|
F#|---------------|     |-----------------|
C#|0-0-12-0-3--5--| X2  |8------7-----1--5|
G#|0-0-12-0-3--5--|     |8-X16--7-X8--1--5|  (I'm Not Quite Sure If The Last
C#|0-0-12-0-3--5--|     |8------7-----1--5|   Note Should Be 5)




Interlude 2

D#|----------------------|
A#|----------------------|
F#|----------------------|
C#|0--0--0--0--0--0--0--0|
G#|0--0--0--0--0--0--0--0|
C#|0--0--0--0--0--0--0--0|




Verse 2

D#|-------|      |-----------------------------------|
A#|-------|      |-----------------------------------|
F#|-------| X4   |-----------------------------------|
C#|-------|      |-----------------------------------|
G#|-------|      |-----------------------------------|
C#|0-12-13|      |0-12-13-0-12-13-0-12-13-13-12-10-12|     |
                                                         |X2
D#|-------|      |-----------------------------------|     |
A#|-------|      |-----------------------------------|
F#|-------| X4   |-----------------------------------|
C#|-------|      |-----------------------------------|
G#|-------|      |-----------------------------------|
C#|0-12-13|      |0-12-13-0-12-13-0-12-13-13-15-13-12|




Pre-Chorus 2

D#|---------------|
A#|---------------|
F#|---------------|     Let The 10 Ring This Time
C#|8~~~~~~7~~~~10~|
G#|8~~~~~~7~~~~10~|
C#|8~~~~~~7~~~~10~|




Chorus 2

D#|---------------|     |-----------------|
A#|---------------|     |-----------------|
F#|---------------|     |-----------------|
C#|0-0-12-0-3--5--| X3  |8-----7-----10---|
G#|0-0-12-0-3--5--|     |8-X8--7-X4--10-X4|
C#|0-0-12-0-3--5--|     |8-----7-----10---|

D#|---------------|     |-----------------|
A#|---------------|     |-----------------|
F#|---------------|     |-----------------|
C#|0-0-12-0-3--5--| X2  |8------7-----1--5|
G#|0-0-12-0-3--5--|     |8-X16--7-X8--1--5|
C#|0-0-12-0-3--5--|     |8------7-----1--5|




Interlude 3

D#|-------------------------|
A#|-------------------------|
F#|-------------------------|
C#|0--0--0--0--0--0--0--XXXX|
G#|0--0--0--0--0--0--0--XXXX|
C#|0--0--0--0--0--0--0--XXXX|




Bridge

D#|----------------------------|
A#|----------------------------|
F#|----------------------------|
C#|0--1p0-0--2h3p0--7--0--3-2-1|  X8
G#|0--1p0-0--2h3p0--7--0--3-2-1|
C#|0--1p0-0--2h3p0--7--0--3-2-1|

D#|-------------------------------------------------------|
A#|-------------------------------------------------------|
F#|-------------------------------------------------------|     
C#|8~~~~~~7~~~~10~~0~~~~~~~~~~~~~~~~~~0~~~~~~~~~~~~~~~~~~~|  0's Are Held
G#|8~~~~~~7~~~~10~~0~~~~~~~~~~~~~~~~~~0~~~~~~~~~~~~~~~~~~~|  For Long Time.
C#|8~~~~~~7~~~~10~~0~~~~~~~~~~~~~~~~~~0~~~~~~~~~~~~~~~~~~~|




Chorus 3

D#|---------------|     |-----------------|
A#|---------------|     |-----------------|
F#|---------------|     |-----------------|
C#|0-0-12-0-3--5--| X3  |8-----7-----10---|
G#|0-0-12-0-3--5--|     |8-X8--7-X4--10-X4|
C#|0-0-12-0-3--5--|     |8-----7-----10---|

D#|---------------|     |-----------------|
A#|---------------|     |-----------------|
F#|---------------|     |-----------------|
C#|0-0-12-0-3--5--| X2  |8------7-----1--5|
G#|0-0-12-0-3--5--|     |8-X16--7-X8--1--5|
C#|0-0-12-0-3--5--|     |8------7-----1--5|




Outro

D#|------------------------------------|
A#|------------------------------------|
F#|------------------------------------|
C#|0-0-0-0|-0-0-0-0|-0-0-0-0|-0-0-0-0-0|
G#|0-0-0-0|-0-0-0-0|-0-0-0-0|-0-0-0-0-0|
C#|0-0-0-0|-0-0-0-0|-0-0-0-0|-0-0-0-0-0|


comments
print report bad tab
3 comments total.
0 reply
will5k wrote on January 10 2009, 05:46 am

well done
it helped so much
the others sucked bad
will5k

0 reply
HybridMonkeyPig wrote on February 20 2009, 07:46 am

Intro

D#|--------------------------|
A#|--------------------------|
F#|--------------------------|
C#|0--1p0--2h3p0--7--0--3-2-1| X8
G#|0--1p0--2h3p0--7--0--3-2-1|
C#|0--1p0--2h3p0--7--0--3-2-1|

it should be this. sorry

0 reply
HybridMonkeyPig wrote on April 28 2009, 08:04 am

wait, i was right first time

I want to post or [tab]
guest
You may want to rate the tab now too:
select rating
Please do not post tabs as comments. Select "correction" instead!