Oops, an error
Loading. Please wait.

Rebellion Tab

version 1
version 1

Whole song

Interactive

20,600 views 30 this week
10 commentsread comments
1 2 3 4 5
excellent!
x 11
add to favorites
launch autoscroll
font size
0
reset
how to read this tab
guitar tuner
Autoscroll
slow
fast
+/-
esc
set tempo
stop
Help us to improve Ultimate-Guitar.com Take our survey!
×
Author
Difficulty
Tuning
novice
C G C F A D
Linkin Park - Rebellion ft Daron Malakian

tuning: Drop C


intro (wt effects)


-----------------|
-----------------|
-----------------|
-12---12---12----|
-----------------|
----0----0---0---| x4

riff 1

--------------------------------------/---------------------------------------|
--------------------------------------/---------------------------------------|
--------------------------------------/---------------------------------------|
--------------------------------------/---------------------------------------|
--------------------------------------/---------------------------------------|
-1-0-0-1-0-0-1-0-0-1-0-0-1-0-1-0-(x3)-/-12-12-12-11-11-11-8-8-8-7-7-7-5-5-7-7-|
 * * * * * * * * * * * * * * * *        *  *  *  *  *  *  * * * * * * * * * *


--------------------------------------/---------------------------------------|
--------------------------------------/---------------------------------------|
--------------------------------------/---------------------------------------|
--------------------------------------/---------------------------------------|
--------------------------------------/---------------------------------------|
-1-0-0-1-0-0-1-0-0-1-0-0-1-0-1-0-(x3)-/-12-12-12-11-11-11-8-8-8-7-7-7-5-5-7-7-|
 * * * * * * * * * * * * * * * *        *  *  *  *  *  *  * * * * * * * * * *

--------------------------------------/---------------------------------------|
--------------------------------------/---------------------------------------|
--------------------------------------/---------------------------------------|
--------------------------------------/-12-12-12-11-11-11-8-8-8-7-7-7-5-5-7-7-|
--------------------------------------/-12-12-12-11-11-11-8-8-8-7-7-7-5-5-7-7-|
-12-12-12-11-11-11-8-8-7-7-7-5-5-7-7--/-12-12-12-11-11-11-8-8-8-7-7-7-5-5-7-7-|
 *  *  *  *  *  *  * * * * * * * * *

riff 2

------------------------------------------------------|
------------------------------------------------------|
------------------------------------------------------|
------------------------------------------------------|
------------------------------------------------------|
-2p0--0--0-0-2p0--0--0-0-2p0--0--0-0//8-8-8-8-8-8-8-8-| x2


riff 3 (guitar 1)

----------------------------------------------------------------|
----------------------------------------------------------------|
----------------------------------------------------------------|
---10-12--12--10-12-10--10-12-12-12----10-12--12-14-15--17--15~-|
-12-------------------12-------------12-------------------------|
----------------------------------------------------------------|


--------------------------------------------------------------------|
--------------------------------------------------------------------|
--------------------------------------------------------------------|
---10-12--12--10-12-10--10-12-12-12----10-12--12-14-15--17-19-19-19-|
-12-------------------12-------------12-----------------------------|
--------------------------------------------------------------------|


riff 3 (guitar 2)

---------------------------------------------------------------|
--------------------------------------------8-10--11--10~------|
-7-9-10--10--9-10-9-7-9-10-10-10--7-9-10--10-------------------|
---------------------------------------------------------------|
---------------------------------------------------------------|
---------------------------------------------------------------|


------------------------------------------------------------------|
--------------------------------------------8-10--11--13-13-13-13-|
-7-9-10--10--9-10-9-7-9-10-10-10--7-9-10--10----------------------|
------------------------------------------------------------------|
------------------------------------------------------------------|
------------------------------------------------------------------|


verse

----------------------/------------------------------------|
----------------------/------------------------------------|
----------------------/------------------------------------|
----------------------/------------------------------------|
----------------------/----------1-1-1-1-------------------|
-2p0-0-0-0-0-0-0-(x3)-/--3-3-3-3---------------------------| x6
 * * * * * * * *         * * * * * * * *

chorus

------------------------------------|
------------------------------------|
------------------------------------|
-10~--10-0-5~--5-0-8~--8-0-3~--3-0--|
-10~--10-0-5~--5-0-8~--8-0-3~--3-0--|
-10~--10-0-5~--5-0-8~--8-0-3~--3-0--| x2


riff 3

verse x6

prechorus x2

chorus


bridge (guitar 1)

-----------------------------------|
-----------------------------------|
-----------------------------------|
-----------------------------------|
-----------------------------------|
-1p0-0-1p0-0-1p0-0-1p0-0-1p0-1p0---| x4

bridge (guitar 2-with effects)

------------------------------------------------------|
------------------------------------------------------|
------------------------------------------------------|
-0-19p0-0-19p0-0-19p0-0-19p0-19-19-19-19--(x2)--------|
------------------------------------------------------|
------------------------------------------------------|

------------------------------------------------------|
------------------------------------------------------|
------------------------------------------------------|
-0-14p0-0-15p0-0-17p0-0-15p0-15-15-15-15--(x2)--------|
------------------------------------------------------|
------------------------------------------------------|  x2


breakdown

--------------------------------/---------------------------------------|
--------------------------------/---------------------------------------|
--------------------------------/---------------------------------------|
-1-0-0-1-0-0-1-0-0-1-0-0-1------/---------------------------------------|
-1-0-0-1-0-0-1-0-0-1-0-0-1------/---------------------------------------|
-1-0-0-1-0-0-1-0-0-1-0-0-1-(x3)-/--4-4-4-5-5-5-7-7-7-8-8-8-11-11-11-11--| x2
 * * * * * * * * * * * * *

----------------------------------------|
----------------------------------------|
----------------------------------------|
----------------------------------------|
----------------------------------------|
--4-4-4-5-5-5-7-7-7-8-8-8-11-11-11-11---| x2

chorus x2

riff 3
Suggest correction new What's this?
You can suggest a correction to this tab. Community and Mods will review your correction and vote to approve or reject it.
comments
print report bad tab
10 comments total. Showing first comments.
+2 reply
guitr638 57 wrote on June 6 2014, 08:12 am

typical Daron...drop C :P

0 reply
alex720 464 wrote on June 8 2014, 03:05 pm

Never thought I'd see a breakdown in a Linkin Park song again! Great job

0 reply
dennisrossonero 374 wrote on June 9 2014, 07:58 am

thanks mate!

guest
You may want to rate the tab now too:
select rating
Please do not post tabs as comments. Select "correction" instead!