Oops, an error
Loading. Please wait.

Roads Untraveled Tab

version 2
version 2

Whole song

Interactive

7,307 views 27 this week
no commentswrite comment
1 2 3 4 5
excellent!
x 6
add to favorites
launch autoscroll
font size
0
reset
how to read this tab
guitar tuner
Tab Pro tools
  • play this tab
  • loop segment
  • change instrument
  • show fretboard
  • metronome
Autoscroll
slow
fast
+/-
esc
set tempo
stop
Contributor
Difficulty
novice
Roads Untraveled - Living Things - Linkin Park - whole song by Mateoz555
Tuning: Standard

2:07

E-------------------------------------------------------------|
H-------------------------------------------------------------|
G----8-8-8-8--6--4--8-8-8--6-6-6------------------------------|
D----x-x-x-x--x--x--x-x-x--x-x-x--6-6-6-6-6-6-6-6-6-6-6-6--9--| 
A----6-6-6-6--4--2--6-6-6--4-4-4--6-6-6-6-6-6-6-6-6-6-6-6--9--|
E---------------------------------4-4-4-4-4-4-4-4-4-4-4-4--7--|


E------------------------------------------------------------------|
H------------------------------------------------------------------|
G----8-8-8-8--6--4--8-8-8--6-6-6-6-6-6-6-6-6--11-11-11-11-11-11----|
D----x-x-x-x--x--x--x-x-x--x-x-x-4-4-4-4-4-4--x--x--x--x--x--x-----| 
A----6-6-6-6--4--2--6-6-6--4-4-4-4-4-4-4-4-4--9--9--9--9--9--9-----|
E------------------------------------------------------------------|


E----------------------------------------------------------------------------|
H----------------------------------------------------------------------------|
G----9-9-9-9--8--6--8-8-8-8--6--4--8-8-8-8--6--4--8-8-8-8--8-8-8-8--6--4-----|
D----x-x-x-x--x--x--x-x-x-x--x--x--x-x-x-x--x--x--x-x-x-x--x-x-x-x--x--x-----| 
A----7-7-7-7--6--4--6-6-6-6--4--2--6-6-6-6--4--2--6-6-6-6--6-6-6-6--4--2-----|
E----------------------------------------------------------------------------|


E--------------------------------------------|
H--------------------------------------------|
G----8-8-8--6-6-6----------------------------|
D----x-x-x--x-x-x--6-6-6-6-6-6-6-6-6-6-6-6---| 
A----6-6-6--4-4-4--6-6-6-6-6-6-6-6-6-6-6-6---|
E------------------4-4-4-4-4-4-4-4-4-4-4-4---|



3:05

E-------------------------------------------------------------|
H-------------------------------------------------------------|
G----8-8-8-8--6--4--8-8-8--6-6-6------------------------------|
D----x-x-x-x--x--x--x-x-x--x-x-x--6-6-6-6-6-6-6-6-6-6-6-6--9--| 
A----6-6-6-6--4--2--6-6-6--4-4-4--6-6-6-6-6-6-6-6-6-6-6-6--9--|
E---------------------------------4-4-4-4-4-4-4-4-4-4-4-4--7--|


E------------------------------------------------------------------|
H------------------------------------------------------------------|
G----8-8-8-8--6--4--8-8-8--6-6-6-6-6-6-6-6-6--11-11-11-11-11-11----|
D----x-x-x-x--x--x--x-x-x--x-x-x-4-4-4-4-4-4--x--x--x--x--x--x-----| 
A----6-6-6-6--4--2--6-6-6--4-4-4-4-4-4-4-4-4--9--9--9--9--9--9-----|
E------------------------------------------------------------------|


E--------------------------------------------------------------------------------|
H--------------------------------------------------------------------------------|
G----9-9-9-9--8--6--8-8-8-8--6--4--8-8-8-8--6--4--8-8-8-8-8-8--8-8-8-8--6--4-----|
D----x-x-x-x--x--x--x-x-x-x--x--x--x-x-x-x--x--x--x-x-x-x-x-x--x-x-x-x--x--x-----| 
A----7-7-7-7--6--4--6-6-6-6--4--2--6-6-6-6--4--2--6-6-6-6-6-6--6-6-6-6--4--2-----|
E--------------------------------------------------------------------------------|


E------------------------------------------------------|
H------------------------------------------------------|
G----8-8-8--6-6-6---------------------------6--8-------|
D----x-x-x--x-x-x--6-6-6-6-6-6-6-6-6-6-6-6--x--x-------| 
A----6-6-6--4-4-4--6-6-6-6-6-6-6-6-6-6-6-6--4--6-------|
E------------------4-4-4-4-4-4-4-4-4-4-4-4-------------|

E--------------------------------------------------------------------------------|
H--------------------------------------------------------------------------------|
G----9-9-9-9--8--6--8-8-8-8--6--4--8-8-8-8--6--4--8-8-8-8-8-8--8-8-8-8--6--4-----|
D----x-x-x-x--x--x--x-x-x-x--x--x--x-x-x-x--x--x--x-x-x-x-x-x--x-x-x-x--x--x-----| 
A----7-7-7-7--6--4--6-6-6-6--4--2--6-6-6-6--4--2--6-6-6-6-6-6--6-6-6-6--4--2-----|
E--------------------------------------------------------------------------------|


E--------------------------------------------------|
H--------------------------------------------------|
G----8-8-8--6-6-6----------------------------------|
D----x-x-x--x-x-x--6-6-6-6-6-6-6-6-6-6-6-6---------| 
A----6-6-6--4-4-4--6-6-6-6-6-6-6-6-6-6-6-6---------|
E------------------4-4-4-4-4-4-4-4-4-4-4-4---------|
comments
print report bad tab
I want to post or [tab]
guest
You may want to rate the tab now too:
select rating
Please do not post tabs as comments. Select "correction" instead!