Oops, an error
Loading. Please wait.
We have an official Roads Untraveled tab made by UG professional guitarists. Check out the tab »
×
1,585 views 33 this week
no commentswrite comment
1 2 3 4 5
1 last vote to show rating
add to favorites
×
Save as Personal and add changes to this tab that will be seen only by you. Learn more ›
×
You can save this tab as Personal to edit and correct it or add notes. All changes will be seen only by you. Learn more »
launch autoscroll
font size
0
reset
how to read this tab
guitar tuner
edit
Autoscroll
slow
fast
+/-
esc
set tempo
stop
Author
Difficulty
Linkin Park - Roads untraveled


Album: Living things (2012)


Tuning: EADGBe (Standard)



For me their best song on this album and easily in the top 5 of their ballads. 

I will not tab every repetation of every chord nor will I focus on the rhythm,
you have to watch out for it yourself or check out my youtube cover:


https://www.youtube.com/watch?v=saOG7lcuNRo





1. Vers (first part) [clean; some kind of roatater; delay]


e-------------------------------------------------------------------------
B---------4--4---0~----------4--4---2~--2--4---5--5---4--4---4--4---4--4--
G--4--4---4--4---1~---4--4---4--4---3~---------6--6---4--6---3--3---6--6-- ->
D--6--6---4--4---2~---6--6---4--4---4~---------6--6---6--6---5--5---6--6--
A--6--6---2--2---x----6--6---2--2---x----------4--4----------6--6---------
E--4--4----------0~---4--4----------2~------------------------------------



e-----------------------4~--
B--4--4---3--3--------4-----
G--4--6---4--4------4-------
D--6--6---5--5---6----------
A---------6--6--------------
E---------------------------




1. Verse (second part) [slightly distorted; a lot of delay and reverb]
                        



e-------------------------------------------------------------
B-------------------------------------------------------------
G--/8--6--4--/8--6--4-----/8--6--4--/8--6--4h6---/9--8--6--8--
D----------------------6-------------------------------------- ->
A-------------------------------------------------------------
E-------------------------------------------------------------




e--------------------------------------------------
B--------------------------------------------------
G--6--4--/8--(4x, watch out for timing)--6--4------
D----------------------------------------------6~--
A--------------------------------------------------
E--------------------------------------------------





1. Verse (third part)   Guitar 1 [clean; delay]
                        Guitar 2 [slightly distorted; rotater; delay]



Guitar 1 

e-------------------------------------------------------------------------
B---------------------------4--------0~-------------------------------2~--
G----------4-------------4----4------1~-------------------------------3~--
D--------6----6--------4---------4---2~--(same picking part, then...)--4~- ->
A-----6---------6---2----------------x--------------------------------x---
E--4---------------------------------0~-------------------------------2~--



e---------------------------------------------------------------------------
B-----------5--------------4-------------------4---------------4------------
G--------6----6---------4-----4-----4--------3----3---------4-----4-----4---
D-----6----------6---6-----------6--------5----------5---6-----------6------ ->
A--4-----------------------------------6------------------------------------
E---------------------------------------------------------------------------



e---------------------------------------------4-----------------4--------
B--------4-----------------4---------------4-----4-----------4-----4-----
G-----4----4----4-------3-----3---------4-----------4-----4-----------4--
D--6----------6-------5----------5---6-----------------6-----------------
A------------------6-----------------------------------------------------
E------------------------------------------------------------------------




Guitar 2

e----------12--------------9------------------------
B------12---------12---7------9------9---9------9~--
G--13---------13-----------------12---------12------
D---------------------------------------------------
A---------------------------------------------------
E---------------------------------------------------




Now comes the pre-chorus (oohooohooo...)


Guitar 1 [clean/ accoustic]
Guitar 2 [slightly distorted; rotater; delay]



Guitar 1 (watch out for rhythm and repetation!)


e----------------------------------------------
B----------------------------------------------
G-----------------------6-----8---------8------
D--6--4--2----6--4--2---6--6--8--6---6--8--6~--
A--6--2--2----6--2--4---4--6--6--6---6--6--6~--
E--4-----0----4-----4------4-----4---4-----4~--


Guitar 2


e--------12-------------9---------------11------
B-----12--------12--7------9------9--9------9~--
G--13--------13---------------12----------------
D-----------------------------------------------
A-----------------------------------------------
E-----------------------------------------------





Chorus  


Guitar 1 [distorted
Guitar 2 [distorted; slightly delayed]




Guitar 1 (watch out for rhythm and repetation!)


e------------------------------------------------
B------------------------------------------------
G------------------------------------------------
D--6--9--6----6--9--8----6--6--5--6----6--5--6~--
A--6--9--7----6--9--9----7--6--6--6----6--6--6~--
E------------------------------------------------




Guitar 2 (plays the ovtave part, again watch out for rhythm and repet.)


It seems kinda messy but you will get the hang of it pretty fast.


e---------------------------------------------------------------------
B---------------------------------------------------------------------
G--8--6--4--8--6--4-----4--8--6--4--8--6--4--6--11--6--8--9--8--6--8--
D--x--x--x--x--x--x--6--x--x--x--x--x--x--x--x---x--x--x--x--x--x--x--
A--6--4--2--6--4--2--x--2--6--4--2--6--4--2--4---9--4--6--7--6--4--6-- ->
E--------------------4------------------------------------------------



e---------------------------------------
B---------------------------------------
G--6--4--8--6--4--8--6--4--8--6--4------
D--x--x--x--x--x--x--x--x--x--x--x--6~--  
A--4--2--6--4--2--6--4--2--6--4--2--x---
E-----------------------------------4~--





Now comes the bridge part:


Guitar 1 [clean; delay]
Guitar 2 [slightly distorted; rotater; delay]



Guitar 1


e---------------------------------------------------
B--------------2~---2--4---5--5---4--4---4--4---4~--
G----1~---4~---3~----------6--6---4--4---3--3---4~--
D----2~---6~---4~----------6--6---6--6---5--5---6~-- ->
A----x~---6~---x-----------4--4----------6--6-------
E----0~---4~---2~-----------------------------------



e----------------------4~--
B----------4--4---4~---4~--
G----------4--4---3~---4~--
D---6--8---6--6---5~---6~--
A-----------------6~-------
E--------------------------




Guitar 2 


e---9---------------11------
B------9------9--9------9~--
G---------12----------------
D---------------------------
A---------------------------
E---------------------------






Solo (The dots underline the palm muted notes, P*=pinch harmonic)



Guitar 1 [distorted; delay]
Guitar 2 [distorted]



Guitar 1


e---------------------------------------------------------------------------------------------------------
B-----------------------------------------------------------------------------------7---------------------
G--/8--6--4--/8--6--4h6----------------------------------------6b-------4--6b--6P*----6v--11--11--13--11--
D------------------------6--------------4-----------6--4-----------4h6---------------------x---x---x---x--
A---------------------------4--7--6--4-----7--6--4-------7--6------------------------------9---9---9---9--
E---------------------------------------------------------------------------------------------------------
                            .  .  .  .  .  .  .  .  .  . .  .


e-----------------------------------------------------------------------------
B-----------------------------------------------------------------------------
G----------------------------------------------4-----4--6b--6b--4--4----------
D-----------4--4h6--4--------------------4--6-----6-------------------4--6v~--
A--4--6--7-------------7--6h7p6--4--6h7---------------------------------------
E-----------------------------------------------------------------------------



e----------------------------------------------------------------------
B-------------------------------------------------------12--11--9v~----
G---------------------6--8--9--8--6--6h8p6-----------------------------
D-------6--8--9--8--9-----------------------9-8-6-8-8v~----------------
A--6h7-----------------------------------------------------------------
E----------------------------------------------------------------------
   . .  .  .  .  .  . .  .  .



Slide the neck up and down into


this octave part, all tremolo picked (watch out for rhythm and repeats!)



e-------------------------------------------------------------------
B-------------------------------------------------------------------
G--18--16--15--16--15--13--15--16--15--13--15--16--15--13--15--13~--
D---x---x---x---x---x---x---x---x---x---x---x---x---x---x---x---x---
A--16--14--13--14--13--11--13--14--13--11--13--14--13--11--13--11~--
E-------------------------------------------------------------------



Guitar 2 plays the same part as Guitar 1 in the Chorus. Look out for some variation at the end,
the chords remain the same, it's just a matter of rhythm.



{FIN}

            
            
Suggest correction
Creating personal tab
Creating personal tab
You can edit any tab online and save it as your Personal.

You can edit, replace or remove any tab part or add personal notes – all changes will be seen only by you.

Personal tabs can be accessed anytime from any device, even offline.
Learn more »
Give kudos to tab author, rate the tab!
1 2 3 4 5
comments
print report bad tab
guest
You may want to rate the tab now too:
select rating
Wanna post a correction for this tab? Suggest correction