Oops, an error
Loading. Please wait.

Runaway Tab

version 2
2,373 views 1 this week
5 commentsread comments
1 2 3 4 5
x 7
add to favorites
launch autoscroll
font size
0
reset
how to read this tab
guitar tuner
Autoscroll
slow
fast
+/-
esc
set tempo
stop
Help us to improve Ultimate-Guitar.com Take our survey!
×
Author
This is the way to play this song. Standard tuning.
Same chords throughout the entire song.
This is my first tab so tell me what you think.


e-------------------------------------------------------
B-------------------------------------------------------
G-------------------------------------------------------
D-------------------------------------------------------
A-9-9--10-10-10-10--3-3--5-5-5-5------------------------
E-7-7--12-12-12-12--5-5--7-7-7-7------------------------

email me if this is wrong.
serenelink@aol.com
Suggest correction
comments
print report bad tab
5 comments total. Showing first comments.
0 reply
KirbySuperStar 0 Mar 07, 2002 12:00 AM

Add Slides then it sound alright

0 reply
serenelink 30 Mar 08, 2002 12:00 AM

THIS IS TO CORRECT MY MISTAKE IN MY TAB!
A-99-12121212-55-55
E-77-10101010-33-77

0 reply
smoothcrmnal07 10 Mar 16, 2002 12:00 AM

i think the last chord is like this:
a---7-7-------------
E---5-5----------

guest
You may want to rate the tab now too:
select rating
Wanna post a correction for this tab? Suggest correction