Oops, an error
Loading. Please wait.

Runaway Tab

version 4
1,972 views 3 this week
3 commentsread comments
1 2 3 4 5
accurate
x 3
add to favorites
launch autoscroll
font size
0
reset
how to read this tab
guitar tuner
Tab Pro tools
  • play this tab
  • loop segment
  • change instrument
  • show fretboard
  • metronome
×
Best way to learn
"Runaway"
Autoscroll
slow
fast
+/-
esc
set tempo
stop
Contributor
-------------------------------------------------------------------------------
                             Run Away - Linkin Park
-------------------------------------------------------------------------------
Artist: Linkin Park
Album: Hybrid Theory
Song Title: Run Away (Track 6)
Tabbed by:Zero is great man
Tuning:Standard Tunning: EADGBe

Riff 1: Played with some type of keyboard effect.
e|------------|
B|------------|"Graffiti decarations, under a sky of dust"
G|-15---------|
D|-15--14--15-|
A|-13--14--15-|"Paper bags and empty voices"
E|-----12--13-|

Riff 2: Play heavly distorted the first time, the second, played with octave
pedal, one octave lower.
e|----------------------------------|
B|----------------------------------|"I wanna run away, never say good bye"
G|-4-4-x--7-7-7-7-------------------|"I wanna know the truth, 
D|-4-4-x--7-7-7-7----5-5-x--7-7-7-7-|Instead of wondering why..."
A|-2-2-x--5-5-5-5----5-5-x--7-7-7-7-|
E|-------------------3-3-x--5-5-5-5-|

Riff 3: []= Digital Delay effect.  Then played one octave lower w/Distortion.
e|---------------------------------|[] "I'm gonna run awa, and never say
B|---------------------------------|Good bye"
G|-[7]----6-6-7-7-6-6--6-6-7-7-6-6-|
D|-[x]----6-6-7-7-6-6--6-6-7-7-6-6-|
A|-[4]----4-4-5-5-4-4--4-4-5-5-4-4-|"Gonna run away, gonna runaway"
E|---------------------------------|

| /  slide up
| \  slide down
| h  hammer-on
| p  pull-off
| ~  vibrato
| +  harmonic
| x  Mute note
=============================================================================
comments
We did not receive enough feedback on this tab! Please rate:
print report bad tab
1 2 3 4 5
3 comments total.
0 reply
[nirvana]bobbel wrote on October 5 2006, 04:50 pm

n1 man!

0 reply
Marx79 wrote on May 8 2007, 09:38 am

great tab

0 reply
kelektrik wrote on August 31 2009, 01:48 am

Drop D half step down.

e|----------------------------------|
B|----------------------------------|
G|-4-4-4/-7-7-7-7-------------------|
D|-4-4-4/-7-7-7-7----7-7-x--7-7-7-7-|
A|-2-2-2/-5-5-5-5----5-5-x--7-7-7-7-|
E|-------------------5-5-x--7-7-7-7-|

I want to post or [tab]
guest
You may want to rate the tab now too:
select rating
Please do not post tabs as comments. Select "correction" instead!