Oops, an error
Loading. Please wait.

Runaway Tab

version 5
1,938 views 1 this week
no commentswrite comment
1 2 3 4 5
please rate
add to favorites
launch autoscroll
font size
0
reset
how to read this tab
guitar tuner
Tab Pro tools
  • play this tab
  • loop segment
  • change instrument
  • show fretboard
  • metronome
×
Best way to learn
"Runaway"
Autoscroll
slow
fast
+/-
esc
set tempo
stop
Contributor
-----------------------------------------------------------------------------
                             Runaway - Linkin Park
-----------------------------------------------------------------------------
Tabbed by: Shifty
Email: av_shifty_lp@hotmail.com

Tuning: B, F#, B, E, G#, C#

Note: Actual song is Played with an Ibanez 7-String
Tab written for 6-String
* = Harmonic

Intro
C# --------------------------------------------------------|
G# --------------------------------------------------------|
E  7---7-7-10---10-10--10---10-10-3---3-3-5---5-5--5---5-5-|
B  7---7-7-10---10-10--10---10-10-3---3-3-5---5-5--5---5-5-|
F# 5---5-5--8----8--8---8----8--8-1---1-1-3---3-3--3---3-3-|
B  --------------------------------------------------------|

Chorus
C# ----------------------------------------------------------------|
G# ----------------------------------------------------------------|
E  ----------10---10-10--10---10-10--------------------------------|
B  0---0-0---10---10-10--10---10-10-8---8-8-10---10-10--10---10-10-|
F# 0---0-0---8----8---8---8----8--8-8---8-8-10---10-10--10---10-10-|
B  0---0-0--------------------------8---8-8-10---10-10--10---10-10-|

Verse (clean)
C# ------------------------------------------------------------|
G# ------------------------------------------------------------|
E  ------------------------------------------------------------|
B *12-*12-*12-*12-*12-*12-*12-*12-*12-*12-*12-*12-10-10-10-10--|
F# ------------------------------------------------------------|
B  ------------------------------------------------------------|
pm.........................................................

Middle Part
C# -----------------------------------|
G# -----------------------------------|
E  -----------------------------------|
B  0---0-0-1-0-0-0---0-0-0-1----------|
F# 0---0-0-1-0-0-0---0-0-0-1----------|
B  0---0-0-1-0-0-0---0-0-0-1----------|

Note: For the whispered part "I wanna runaway..." tap the strings with the
pick over the pickups
comments
We did not receive enough feedback on this tab! Please rate:
print report bad tab
1 2 3 4 5
I want to post or [tab]
guest
You may want to rate the tab now too:
select rating
Please do not post tabs as comments. Select "correction" instead!