Oops, an error
Loading. Please wait.

Runaway Tab

version 6
632 views 1 this week
no commentswrite comment
1 2 3 4 5
please rate
add to favorites
launch autoscroll
font size
0
reset
how to read this tab
guitar tuner
Tab Pro tools
  • play this tab
  • loop segment
  • change instrument
  • show fretboard
  • metronome
×
Best way to learn
"Runaway"
Autoscroll
slow
fast
+/-
esc
set tempo
stop
Contributor
tunning: dropped down half a step.(eb,Bb,Gb,Db,Ab,Eb)

intro part 1:
eb-------|
Bb-------|
Gb-------|
Db-----2-|  play 3 times
Ab--2----|
Eb-------|

intro part 2:
eb------------------------------------------------|
Bb------------------------------------------------|
Gb------------------------------------------------| play 2 times
Db--44---7777-------------------------------------|
Ab--22---5555---55---7777-------------------------|
Eb--------------33---5555-------------------------|

chorus
eb----------------|
Bb----------------|
Gb----------------|
Db----2-----------| play this 4 times (listen to the speed of the music to
Ab--2-------------|  catch the timing of this bit)
Eb----------------|
verse:
eb------------------------------------|
Bb------------------------------------|
Gb------------------------------------|
Db--44---7777-------------------------| play this 4 times
Ab--22---5555---55---7777-------------|
Eb--------------33---5555-------------|

chorus:
eb------------|
Bb------------|
Gb------------|  play this 5 times
Db------2-----|
Ab---2--------|
Eb------------|

verse:
eb----------------------------|
Bb----------------------------|
Gb----------------------------|
Db--44---7777-----------------| play this 4 times
Ab--22---5555--55--7777-------|
Eb-------------33--5555-------|

bridge:
eb----------------------------------------|
Bb----------------------------------------|
Gb----------------------------------------|
Db--0000-11-0000-1------------------------| play this 3 times
Ab--0000-11-0000-1------------------------|
Eb--0000-11-0000-1------------------------|

ending/verse:
eb---------------------------|
Bb---------------------------|
Gb---------------------------|
Db--44---7777----------------| play this 8 times
Ab--22---5555---55---7777----|
Eb--------------33---5555----|

then once you've mastered it you'll love it. rock on dudes! (p.s: this is my
first tablature so i hope i have it 100% accurate and i hope enjoy this song)
comments
We did not receive enough feedback on this tab! Please rate:
print report bad tab
1 2 3 4 5
I want to post or [tab]
guest
You may want to rate the tab now too:
select rating
Please do not post tabs as comments. Select "correction" instead!