Oops, an error
Loading. Please wait.

Runaway Tab

version 9
4,205 views 1 this week
3 commentsread comments
1 2 3 4 5
1 last vote to show rating
add to favorites
launch autoscroll
font size
0
reset
how to read this tab
guitar tuner
Autoscroll
slow
fast
+/-
esc
set tempo
stop
Help us to improve Ultimate-Guitar.com Take our survey!
×
************************************************
------------------------------------------------
Runaway
------------------------------------------------
************************************************

Its supposed to be on a 7string guitar but this is put into a 6string guitar.

Tuning:

B, E, A, D, G, B

[INTRO]
                             x2
B||---------------------------||
G||---------------------------||
D||-9-9--12~12-\---5-5--7~7-/-||
A||-9-9--12~12-\---5-5--7~7-/-||
E||-7-7--10~10-\---3-3--5~5-/-||
B||---------------------------||

[MAIN RIFF]
                                x2
B||------------------------------||
G||------------------------------||
D||----------------5-5--7-77-7-x-||
A||-2-2--5-55-5-x--5-5--7-77-7-x-||
E||-2-2--5-55-5-x--3-3--5-55-5-x-||
B||-0-0--3-33-3-x----------------||

[VERSE] 

No guitar. Nor in the Pre Chorus.

[CHORUS]

I wanna runaway
Never Say Goodbye
B||------------------------------||
G||------------------------------||
D||----------------5-5--7-77-7-x-||
A||-2-2--5-55-5-x--5-5--7-77-7-x-||
E||-2-2--5-55-5-x--3-3--5-55-5-x-||
B||-0-0--3-33-3-x----------------||

I want to know the truth
Insted of wondering why
B||------------------------------||
G||------------------------------||
D||----------------5-5--7-77-7-x-||
A||-2-2--5-55-5-x--5-5--7-77-7-x-||
E||-2-2--5-55-5-x--3-3--5-55-5-x-||
B||-0-0--3-33-3-x----------------||

I wanna know the answers
No more lies
B||------------------------------||
G||------------------------------||
D||----------------5-5--7-77-7-x-||
A||-2-2--5-55-5-x--5-5--7-77-7-x-||
E||-2-2--5-55-5-x--3-3--5-55-5-x-||
B||-0-0--3-33-3-x----------------||

I wanna shut the door, and open up my mind!
B||------------------------------||
G||------------------------------||
D||----------------5-5--7-77-7-x-||
A||-2-2--5-55-5-x--5-5--7-77-7-x-||
E||-2-2--5-55-5-x--3-3--5-55-5-x-||
B||-0-0--3-33-3-x----------------||

[BRIDGE:]

I wanna run away, and open up my mind!!
              _________________x2
B||-----------------------------||
G||-----------------------------||
D||-----------------------------||
A||--(pause)--2-22--3--22-22--3-||
E||-----------2-22--3--22-22--3-||
B||-----------0-00--1--00-00--1-||
P.M.          . ..     .. ..

I wanna run away, and never wonder why!!
              _________________x2
B||-----------------------------||
G||-----------------------------||
D||-----------------------------||
A||--(pause)--2-22--3--22-22--3-||
E||-----------2-22--3--22-22--3-||
B||-----------0-00--1--00-00--1-||
P.M.          . ..     .. ..

I wanna run away, and open up my mind!
              _________________x4
B||-----------------------------||
G||-----------------------------||
D||-----------------------------||
A||--(pause)--2-22--3--22-22--3-||
E||-----------2-22--3--22-22--3-||
B||-----------0-00--1--00-00--1-||
P.M.          . ..     .. ..

[CHORUS 3:]

I wanna run away, never say goodybe
B||---------------------------||
G||---------------------------||
D||-9-9--12~12-\---5-5--7~7-/-||
A||-9-9--12~12-\---5-5--7~7-/-||
E||-7-7--10~10-\---3-3--5~5-/-||
B||---------------------------||

I wanna know the truth, instead of wondering why
B||---------------------------||
G||---------------------------||
D||-9-9--12~12-\---5-5--7~7-/-||
A||-9-9--12~12-\---5-5--7~7-/-||
E||-7-7--10~10-\---3-3--5~5-/-||
B||---------------------------||

I wanna know the answers, no more lies
B||---------------------------||
G||---------------------------||
D||-9-9--12~12-\---5-5--7~7-/-||
A||-9-9--12~12-\---5-5--7~7-/-||
E||-7-7--10~10-\---3-3--5~5-/-||
B||---------------------------||

I wanna shut the door, And open up my mind!
B||---------------------------||
G||---------------------------||
D||-9-9--12~12-\---5-5--7~7-/-||
A||-9-9--12~12-\---5-5--7~7-/-||
E||-7-7--10~10-\---3-3--5~5-/-||
B||---------------------------||

[OUTRO:]

B||--------------------------||
G||--------------------------||
D||--------------------------||
A||-2-2----------------------||
E||-2-2----------------------||
B||-0-0----------------------||
P.M.. .

---------------
LYRICS:
---------------

(Verse:)

Graffiti decorations, under a sky of dust,
Another wave of tension, on top of broken trust,
The lessons that you taught me, I know where never true,
Now I find myself in question (they point the finger at me again),
Guilty by association (You point the finger at me again!)

(Chorus:)

I wanna run away, never say goodbye,
I wanna know the truth, instead of wondering why,
I wanna know the answers, no more lies,
I wanna shut the door, and open up my mind.

(Verse 2:)

Paper bags and angry voices, under a sky of dust,
Another wave of tension, has more than filled me up,
All my talk of taking action, these words were never true,
Now I find myself in question (they point the finger at me again),
Guilty by association (You point the finger at me again!)

(Chorus:)

I wanna run away, never say goodbye,
I wanna know the truth, instead of wondering why,
I wanna know the answers, no more lies,
I wanna shut the door, and open up my mind.

(Bridge:)

I wanna run away, and never say goodbye!!
I wanna run away, and never wonder why!!
I wanna run away, and open up my mind!! 

(Chorus:)

I wanna run away, never say goodbye,
I wanna know the truth, instead of wondering why,
I wanna know the answers, no more lies,
I wanna shut the door, and open up my mind.

I wanna run away, never say goodbye,
I wanna know the truth, instead of wondering why,
I wanna know the answers, no more lies,
I wanna shut the door, and open up my mind.













Suggest correction
Give kudos to tab author, rate the tab!
1 2 3 4 5
comments
print report bad tab
3 comments total.
0 reply
Tomozaurus 230 Apr 27, 2009 06:00 PM

Good stuff man, spot on.

-1 reply
Cerberus7string 10 Apr 29, 2009 07:57 AM

linkin park never played on 7 string

+2 reply
Hölti 134 May 04, 2009 03:57 PM

they do... brad uses a 7-string on with you

guest
You may want to rate the tab now too:
select rating
Wanna post a correction for this tab? Suggest correction