Oops, an error
Loading. Please wait.

Shadow Of The Day Tab

version 1
version 1
21,349 views 3 this week
3 commentsread comments
1 2 3 4 5
x 3
add to favorites
launch autoscroll
font size
0
reset
how to read this tab
guitar tuner
Autoscroll
slow
fast
+/-
esc
set tempo
stop
Help us to improve Ultimate-Guitar.com Take our survey!
×
Author
Difficulty
Capo
novice
4th fret
Linkin Park - Shadow of The Day
Tuning: Standard (capo 4th fret)

WELL THIS TAB MAY LOOK DIFFICULT BUT ALL IT IS ARE PICKING STRINGS WHILE HOLDING DOWN CHORDS
SO JUST GET THE CHORDS BELOW DOWN AND LEARN THE PICKING AS SHOWN BELOW.


**CHORDS USED DURING SONG**

G/F   D    Em   C   Cadd9  Dsus  Hold 3   Hold 2
-3----2----0----0------3-----0------0--------0----------|
-3----3----0----1------3-----0------0--------0----------|
-0----2----0----0------0-----0------0--------0----------|
-0----0----2----2------2-----2------0--------0----------|
-x---------2----3------3-----3------0--------0----------|
-3---------0-----------------x------3--------2----------|

Intro/Verses: (play 4 times for verses)
Em7         Dsus             Cadd9                   D
--------------------------------------------------------------|
-------3--------------3--------------3--------------------3---|
----------0---0-----2----2---2-----0----0---0-----0-----2---2-|
-----2------2-----0--------0-----2--------2-----2---2-0-------|
---2---------------------------3--------------3---------------|
-0--------------2---------------------------------------------|


1st part of chorus:
(Hold 3)        Am            (hold 2)
-------------------------------------------------------------|
-------0--------------1--------------0--------------0--------|
-----0----0---0-----2----2---2-----0----0---0-----0----0---0-|
---0--------0-----2--------2-----2--------2-----2--------2---|
----------------0-----------------------------3--------------|
-3-----------------------------0-----------------------------|
And the sun will set...

(Hold 3)        Am            (hold 2)
-------------------------------------------------------------|
-------0--------------1--------------0--------------3--------|
-----0----0---0-----2----2---2-----0----0---0-----0----0---0-|
---0--------0-----2--------2-----2--------2-----2--------2---|
----------------0-----------------------------3--------------|
-3-----------------------------0-----------------------------|


2nd part of chorus:
G/F   D    Em   C
-3----2----0----0----|
-3----3----0----1----|
-0----2----0----0----|
-0----0----2----2----|
-x---------2----3----|
-3---------0---------|

And the shadow of the day...
G/F  Am    Em  Cadd9
-3----0----0---------|
-3----1----0----3----|
-0----2----0----0----|
-0----2----2----2----|
-x----0----2----3----|
-3---------0---------|

**END SONG ON G/F CHORD**


Lyrics

I close both locks below the window
I close both blinds and turn away
Sometimes solutions aren't so simple
Sometimes goodbye's the only way

And the sun will set for you
The sun will set for you
And the shadow of the day
Will embrace the world in gray
And the sun will set for you

In cards and flowers on your window
Your friends all plead for you to stay
Sometimes beginnings aren't so simple
Sometimes goodbye's the only way

And the sun will set for you
The sun will set for you
And the shadow of the day
Will embrace the world in grey
And the sun will set for you
Suggest correction
Give kudos to tab author, rate the tab!
1 2 3 4 5
comments
print report bad tab
3 comments total.
0 reply
guitarjg 10 Aug 21, 2008 07:08 AM

5*
I think it sounds perfect, great to sing along with

0 reply
soybean9392 123 Aug 21, 2008 04:20 PM

hey thanks appreciate it alot

0 reply
kelektrik 30 Aug 27, 2009 12:45 PM

lam cao

guest
You may want to rate the tab now too:
select rating
Wanna post a correction for this tab? Suggest correction