Oops, an error
Loading. Please wait.

Shadow Of The Day Tab

version 10
4,672 views 1 this week
1 commentread comment
1 2 3 4 5
accurate
x 4
add to favorites
launch autoscroll
font size
0
reset
how to read this tab
guitar tuner
Autoscroll
slow
fast
+/-
esc
set tempo
stop
Help us to improve Ultimate-Guitar.com Take our survey!
×
Contributor
Difficulty
novice
 I have listened to this song many times, and I absolutely LOVE IT!!! but when I came to 
Guitar, i couldn't find any good tabs that actually sounded like the song. So I sat 
and for an hour figured out the whole song by ear.


Standard Tuning


E|---------------------------------------|
B|---------------------------------------|
G|---------------------------------------|
D|---------------------------------------|  x2
A|---------------------------------------|
E|-44444444-66666666-444444444-00000-222-|

PM......................................

E|---------------------------------------|
B|---------------------------------------|
G|---------------------------------------|
D|---------------------------------------|  x2
A|-22222222------------------------------|
E|----------22222222-44444444-00000--222-|


PM............................................


Guitar 1 Solo

E|---------------------------7----|
B|---5---7---7---7---7---7--------|
G|-4---4---4---4---4---4---4------|
D|--------------------------------|
A|--------------------------------|
E|--------------------------------| x3


then:

E|--------------------------------------|
B|-5---5----5---4---4---4---4---4---4---|
G|---4---4----4---4---4---4---4---4---4-|
D|--------------------------------------|
A|--------------------------------------|
E|--------------------------------------|


Guitar 2 Repeats the first riff 4 times While Guitar 1 continues Solo

Guitar 1 then changes to

e|------------------------------19-------------------------------19-------|
B|--17--19--19--19--19--19--17------17---19--19--19--19--19--17------17---|
G|16--16--16--16--16--16--16--16--16--16---16--16--16--16--16--16--16--16-|
D|------------------------------------------------------------------------|
A|------------------------------------------------------------------------|
E|------------------------------------------------------------------------|

Repeat until the end of song

Guitar 2 ends on chord

e|--5~~~~~~~~~~~~~~~~~~~~~~~|
B|--5~~~~~~~~~~~~~~~~~~~~~~~|
G|--6~~~~~~~~~~~~~~~~~~~~~~~|
D|--7~~~~~~~~~~~~~~~~~~~~~~~|
A|--7~~~~~~~~~~~~~~~~~~~~~~~|
E|--5~~~~~~~~~~~~~~~~~~~~~~~|

I hope you enjoy this song as much as I do!
Suggest correction new What's this?
You can suggest a correction to this tab. Community and Mods will review your correction and vote to approve or reject it.
comments
print report bad tab
1 comment total.
0 reply
kelektrik 79 wrote on June 26 2009, 10:58 pm

every single note is wrong.

guest
You may want to rate the tab now too:
select rating
Please do not post tabs as comments. Select "correction" instead!