Oops, an error
Loading. Please wait.

Shadow Of The Day Tab

version 4
4,894 views 1 this week
1 commentread comment
1 2 3 4 5
x 3
add to favorites
launch autoscroll
font size
0
reset
how to read this tab
guitar tuner
Autoscroll
slow
fast
+/-
esc
set tempo
stop
Help us to improve Ultimate-Guitar.com Take our survey!
×
Author
Difficulty
novice
This is off Linkin Park's new album. Guitar either plays really soft or not at all for 
prechorus and chorus at the beginning, but this is what it would be playing.

eBGDAE Standard

Intro, with effects
e----------|
B----------|
G----11-11-|(until prechorus)
D--9-------|
A----------|
E----------|

Prechorus, entirely palm muted -

e--------------------------|
B--------------------------|
G---------------8-----9----|
D--9-----11-----8-(x8)-----|9(x8)
A--9-(x8)11-(x8)6-----7----|
E--7-----9-----------------|

Then Chorus is as follows, 8 accentuants/picks for each, same as pre.

e------------|
B------------|
G-11---------|
D-9--11-13-9-|
A----9--11-7-|
E------------|

And the guitar playing the notes in the background near the end is as follows, close to 
intro, without effects and clear distortion. There is another layered guitar, later at a 
octave.

e--------------------------------------------------|
B--------------------------------------------------|
G--------11---11---11---11---11---11---9---9---9---| Repeat and then
D--9-8-9----9----9----9----9----9----9---9---9---9-|
A--------------------------------------------------|
E--------------------------------------------------|

There is a variation, that plays the 8th fret on the G string after you have repeated a 
times the above, you will notice and throw that in there as well. Good luck this is just 
get you started, it isnt that complicated a song anyways.
Suggest correction
Give kudos to tab author, rate the tab!
1 2 3 4 5
comments
print report bad tab
1 comment total.
+1 reply
the_musicman 72 Jun 02, 2007 11:14 AM

this is 90% wrong...i'm making a tab right now, and im positive it's 100% correct. first off...your tuning is wrong...LP plays this is drop-Db

guest
You may want to rate the tab now too:
select rating
Wanna post a correction for this tab? Suggest correction