Oops, an error
Loading. Please wait.

Shadow Of The Day Tab

version 5
5,709 views 1 this week
5 commentsread comments
1 2 3 4 5
x 6
add to favorites
launch autoscroll
font size
0
reset
how to read this tab
guitar tuner
Autoscroll
slow
fast
+/-
esc
set tempo
stop
Help us to improve Ultimate-Guitar.com Take our survey!
×
Author
Verse - No Guitar

1st Chorus

Palm Mute, Light Distortion

e|------------------------------------|
B|------------------------------------|
G|-4------6---------------------------|
D|-4-(x8)-6-(x8)-6------2------4------|
A|-2------4------6-(x8)-2-(x4)-4-(x4)-|
E|---------------4------0------2------|

Verse and 2nd Chorus - No Guitar

1st Solo:

e|---0---2---2---2---2---2---0---0---0-------|
B|-0---0---0---0---0---0---0---0---4---------|
G|-------------------------------------------| x3
D|-------------------------------------------|
A|-------------------------------------------|
E|-------------------------------------------|

e|---0---0---0---0---------------------------|
B|-0---0---0---0---0---4---4----4---4--------|
G|------------------------4---4---4---4------|Ending of solo
D|-------------------------------------------|
A|-------------------------------------------|
E|-------------------------------------------|

2nd Solo:

e|----12----14----14----14----14----12----11-|
B|-12----12----12----12----12----12----12----|
G|-------------------------------------------|
D|-------------------------------------------|
A|-------------------------------------------|
E|-------------------------------------------|

Repeat 2nd solo as many times as necessary, ending on the 11.
Suggest correction
comments
print report bad tab
5 comments total. Showing first comments.
0 reply
finalheaven 31 Jun 02, 2007 12:42 AM

No intro?

0 reply
chris_red 175 Jun 02, 2007 05:40 AM

nope there's no guitar intro

0 reply
Syd.B 10 Aug 25, 2007 08:13 AM

why the hell are you asking for an intro? there aint an intro! at least not on guitar

guest
You may want to rate the tab now too:
select rating
Wanna post a correction for this tab? Suggest correction