Oops, an error
Loading. Please wait.

Shadow Of The Day Tab

version 6
21,762 views 1 this week
16 commentsread comments
1 2 3 4 5
accurate
x 8
add to favorites
launch autoscroll
font size
0
reset
how to read this tab
guitar tuner
Autoscroll
slow
fast
+/-
esc
set tempo
stop
Help us to improve Ultimate-Guitar.com Take our survey!
×
Author
Difficulty
Tuning
novice
D A D G B E
This song may be quiet and slow, 
but the solo is fun to play and sounds cool

Shadow of the Day- no guitar until solos kick in, Drop D, Solo 1
|-------|---------------------------------|
|---5---|-7---7---7---7---7---5---4---5---|
|-4---4-|---4---4---4---4---4---4---4---4-|
|-------|---------------------------------|
|-------|---------------------------------|
|-------|---------------------------------| x3

|---------------------------------|
|-5---5---4---4---4---4---4---4---|
|---4---4---4---4---4---4---4---4-|
|---------------------------------|
|---------------------------------|
|---------------------------------|
Repeat first riff 4 more times

Solo 2- one octave up of solo one, which is played behind as rhythm
|----12----|-14----14----14----14----14----12----11----12----|
|-12----12-|----12----12----12----12----12----12----12----12-|
|----------|-------------------------------------------------|
|----------|-------------------------------------------------|
|----------|-------------------------------------------------|
|----------|-------------------------------------------------| x8

End song on
|-----------|     |-11~--------|
|-----------|     |------------|
|-----------|     |------------|
|-9~--------|     |------------|
|-9~--------|     |------------|
|-9~--------| and |------------|

Woo hoo
Suggest correction
comments
print report bad tab
16 comments total. Showing first comments.
0 reply
the_musicman 72 wrote on June 2 2007, 10:37 pm

wrong...there is guitar before the solo...listen closer

0 reply
the_musicman 72 wrote on June 2 2007, 10:37 pm

and...the solo you've posted is wrong

0 reply
JL Sevenfold 697 wrote on June 4 2007, 09:12 am

seriously?... if u say so

guest
You may want to rate the tab now too:
select rating
Please do not post tabs as comments. Select "correction" instead!