Oops, an error
Loading. Please wait.

Shadow Of The Day Tab

version 7
2,658 views 3 this week
3 commentsread comments
1 2 3 4 5
accurate
x 3
add to favorites
launch autoscroll
font size
0
reset
how to read this tab
guitar tuner
Autoscroll
slow
fast
+/-
esc
set tempo
stop
Help us to improve Ultimate-Guitar.com Take our survey!
×
Author
Difficulty
Tuning
novice
C# G# C# F# A# D#
Song: Shadow Of The Day
Artist: Linkin Park
Album: Minutes To Midnight
Track #5

Tabbed by: The Musicman

tunings and guitars:

Guitar One [Brad] - Drop-Db [Db Ab Db Gb Bb Eb]
Guitar Two [Mike] - Drop-Db [Db Ab Db Gb Bb Eb]

notes:

this song was very hard to tab. i did not tab any effects...i tabbed straight guitar. 
reason why it's so hard is because mike is so quiet in the verses. i have also found three 
ways to play the solo. i put up what i thought was easiest.

this is the first song ive ever tabbed by ear. im gonna try to tab the entire LP album, 
post an album tab up here. but for now, this is what ive come up with.

it's a very good song. one of my favorites off the new album.

for any questions or comments, you can email me at snake-jpw@comcast.net
or AIM me at EmoGuitarM

here goes:


intro is electronic drums. verse one is electronic drums and bass.

pre-chorus [guitar two, clean]:

eb-------------------------------------------|
bb-------------------------------------------|
gb-------------------------------------------|
db-------------------------------------------| x2
ab--33333333--55555555--00000000-------------|
db--------------------------------33333-555--|
    ........  ........  ........  ..... ...

chorus [guitar two, clean]:

eb-------------------------------------------|
bb-------------------------------------------|
gb-------------------------------------------|
db-------------------------------------------| x2
ab--33333333--55555555--00000000-------------|
db--------------------------------33333-555--|
    ........  ........  ........  ..... ...

interlude [guitar two, clean]:

eb-----------------------------------------|
bb-----------------------------------------|
gb-----------------------------------------|
db-----------------------------------------|
ab--77777777--99999999--3333333333333-555--|
db--77777777--99999999--3333333333333-555--|
    ........  ........  ............. ...

verse [guitar two, clean]:

eb-----------------------------------------|
bb-----------------------------------------|
gb-----------------------------------------|
db-----------------------------------------| x4
ab--77777777--99999999--3333333333333-555--|
db--77777777--99999999--3333333333333-555--|
    ........  ........  ............. ...

play pre-chorus
play chorus

solo [guitar one, distortion]:

eb----1---3---3---3---3---3---1---1--|
bb--1---1---1---1---1---1---1---1----|
gb-----------------------------------|
db-----------------------------------| x3
ab-----------------------------------|
db-----------------------------------|

eb----1---1---1---0---0---1---1---1---1----|
bb--1---1---1---1---1---1---1---1---1---1--|
gb-----------------------------------------|
db-----------------------------------------|
ab-----------------------------------------|
db-----------------------------------------|

solo [guitar two, clean (distortion optional)]

eb-------------------------------------------|
bb-------------------------------------------|
gb-------------------------------------------|
db-------------------------------------------| x2
ab--33333333--55555555--00000000-------------|
db--------------------------------33333-555--|
    ........  ........  ........  ..... ...

chorus [guitar one, distortion]:

eb----1---3---3---3---3---3---1---1--|
bb--1---1---1---1---1---1---1---1----|
gb-----------------------------------|
db-----------------------------------| x4
ab-----------------------------------|
db-----------------------------------|

chorus [guitar two, clean (distortion optional)]:

eb-------------------------------------------|
bb-------------------------------------------|
gb-------------------------------------------|
db-------------------------------------------| x2
ab--33333333--55555555--00000000-------------|
db--------------------------------33333-555--|
    ........  ........  ........  ..... ...

solo II [guitar one, distortion]:

eb-----13-----15----15----15----15----15----13----13--|
bb--13----13-----13----13----13----13----13----13-----|
gb----------------------------------------------------|
db----------------------------------------------------| x4
ab----------------------------------------------------|
db----------------------------------------------------|

solo II [guitar two, distortion]:

eb-------------------------------------------|
bb-------------------------------------------|
gb--55555555--77777777--22222222-------------|
db--55555555--77777777--22222222--33333-555--| x2
ab--33333333--55555555--00000000--33333-555--|
db--------------------------------33333-555--|

final chorus + ending [guitar one, distortion]:

eb-----13-----15----15----15----15----15----13----13--|
bb--13----13-----13----13----13----13----13----13-----|
gb----------------------------------------------------|
db----------------------------------------------------| x4
ab----------------------------------------------------|
db----------------------------------------------------|

eb-----13-----12~---|
bb--13----13--13~---|
gb------------------|
db------------------|
ab------------------|
db------------------|

final chorus + ending [guitar two, distortion]:

eb-------------------------------------------|
bb-------------------------------------------|
gb--55555555--77777777--22222222-------------|
db--55555555--77777777--22222222--33333-555--| x2
ab--33333333--55555555--00000000--33333-555--|
db--------------------------------33333-555--|

eb------|
bb------|
gb--5~--|
db--5~--|
ab--3~--|
db------|

END
Suggest correction
What's this?
You can suggest a correction to this tab. Community and Mods will review your correction and vote to approve or reject it.
comments
We did not receive enough feedback on this tab! Please rate:
print report bad tab
1 2 3 4 5
3 comments total.
-1 reply
linkinparkboy58 25 wrote on January 29 2008, 05:57 pm

WTF?!

0 reply
the_musicman 213 wrote on July 20 2008, 03:03 pm

the solo is the only thing off. everything else i know is right. it's just in drop db tuning.

0 reply
kenvy 1,653 wrote on November 14 2009, 12:00 pm

The only thing that is right is the palm mute part.

guest
You may want to rate the tab now too:
select rating
Please do not post tabs as comments. Select "correction" instead!