Oops, an error
Loading. Please wait.

Shadow Of The Day Tab

version 8
11,156 views 6 this week
6 commentsread comments
1 2 3 4 5
accurate
x 13
add to favorites
launch autoscroll
font size
0
reset
how to read this tab
guitar tuner
Autoscroll
slow
fast
+/-
esc
set tempo
stop
Help us to improve Ultimate-Guitar.com Take our survey!
×
Author
Difficulty
Linkin Park
Shadow of the Day

Standard Tuning for this song (although others are drop d)

Pre Chorous
Gtr 2 (Slighty palm muted on a clean distortion)
e|--------------------------------------|
B|--------------------------------------|
G|--------------------------------------|X2
D|--------------------------------------|
A|-22222222-44444444--------------------|
E|-------------------44444444-00000222--|
   ........ ........ ........ ........

Chorous
Gtr 2(slightly palm muted on a clean disortion)
e|--------------------------------------|
B|--------------------------------------|
G|--------------------------------------|X2
D|--------------------------------------|
A|-22222222-----------------------------|
E|----------22222222-44444444-00000222--|
   ........ ........ ........ ........

Solo 1
Gtr 1 (distorted)
e|-----------------------------------------------------------------------|
B|---------------------12--------------------12--------------------12----|
G|--9-11-11-11-11-11-9----9-11-11-11-11-11-9----9-11-11-11-11-11-9----9--|
D|-9-9--9--9--9--9--9-9--9-9--9--9--9--9--9-9--9-9--9--9--9--9-9--9--9-9-|
A|-----------------------------------------------------------------------|
E|-----------------------------------------------------------------------|

e|------------------|
B|------------------|
G|9-9-8-8-8-8-8-9---|
D|-9-9-9-9-9-9-9-9--|
A|------------------|
E|------------------|

e|---------------------------------------------------------------------|
B|------------------12--------------------12--------------------12-----|
G|-11-11-11-11-11-9----9-11-11-11-11-11-9----9-11-11-11-11-11-9----9---|
D|---9--9--9--9--9-9--9-9--9--9--9--9--9-9--9-9--9--9--9--9--9-9--9--9-|
A|---------------------------------------------------------------------|
E|---------------------------------------------------------------------|

e|--------------------------|
B|------------------12------|
G|-11-11-11-11-11-9----9----|
D|---9--9--9--9--9-9--9--9--|
A|--------------------------|
E|--------------------------|

Solo 2
Gtr 2 (distorted)
e|------------------------------19-------|
B|--17--19--19--19--19--19--17------17---|
G|16--16--16--16--16--16--16--16--16--16-|  do one time then
D|---------------------------------------|
A|---------------------------------------|
E|---------------------------------------|

e|------------------------19-------|
b|19--19--19--19--19--17------17---|
g|--16--16--16--16--16--16--16--16-| repeat till the end of the song
d|---------------------------------|
a|---------------------------------|
E|---------------------------------|

Gtr 1 Plays this behnd the solo 2

e|---------------------------------------|
B|---------------------------------------|
G|-44444444------------------------------|
D|-44444444-44444444-66666666-22222444---|
A|-22222222-44444444-66666666-22222444---|
E|----------22222222-44444444-00000222---|
Suggest correction
What's this?
You can suggest a correction to this tab. Community and Mods will review your correction and vote to approve or reject it.
comments
print report bad tab
6 comments total. Showing first comments.
+1 reply
rastamon360 22 wrote on June 27 2007, 01:02 pm

good the solos are perfect finally som1 2 do it right

+1 reply
kmilongo 1,093 wrote on June 27 2007, 07:43 pm

yeah, everyone else missed those high notes in the solo. good job!

0 reply
MarvelCrawler 19 wrote on June 30 2007, 03:01 pm

good...i guess ^_^

guest
You may want to rate the tab now too:
select rating
Please do not post tabs as comments. Select "correction" instead!