Oops, an error
Loading. Please wait.

Shadow Of The Day Chords

version 9
12,369 views 6 this week
no commentswrite comment
1 2 3 4 5
x 5
add to favorites
launch autoscroll
font size
0
reset
transpose
0
reset
display chords
guitar tuner
Autoscroll
slow
fast
+/-
esc
set tempo
stop
Help us to improve Ultimate-Guitar.com Take our survey!
×
Author
Difficulty
novice
This is a simplified and adapted (for acoutic guitars) version of the original song.
Standard tuning and no capo. (I think it's 70% correct)

Chords:
B: x244xx
G#m: 466xxx
E: 022xxx
F# 244xxx

Intro.: B (G#m F# E F#)

G#m             F#                        E  F#
I close both locks below the window
G#m             F#                        E   F#
I close both blinds and turn away
G#m             F#                       E  F#
Sometimes solutions aren't so simple
G#m             F#                        E   F#
Sometimes goodbye's the only way

             B    F#               G#m  E
And the sun    will set for you
          B F#               G#m E
The sun   will set for you
              B                     F#
And the shadow of the day
           G#m                      E
Will embrace the world in grey
             B    F#              G#m  E
And the sun    will set for you

G#m F# E F#

G#m             F#                 E  F#
In cards and flowers on your window
G#m                 F#                E  F#
Your friends all plead for you to stay
G#m           F#                     E  F#
Sometimes beginnings aren't so simple
G#m              F#             E   F#
Sometimes goodbye's the only way

             B    F#               G#m  E
And the sun    will set for you
          B F#               G#m E
The sun   will set for you
              B                     F#
And the shadow of the day
           G#m                      E
Will embrace the world in grey
             B    F#              G#m  E
And the sun    will set for you

Solo1: (G#m F# E F#)
E|---------------------------------|  
B|---5---7---7---7---7---7---5---5-|  
G|-4---4---4---4---4---4---4---4---|3x then:
D|---------------------------------|  
A|---------------------------------|  
D|---------------------------------|  

|-----------------------------------------|
|---5---4---4---4---4---4---4---5---5---7-| (after that if you play with 
|-4---4---4---4---4---4---4---4---4---4---|  2 guitars, the second can 
|-----------------------------------------|  repeat the solo while the 
|-----------------------------------------|  other play the rest of the 
|-----------------------------------------|  song)

              B                     F#
And the shadow of the day
           G#m                      E
Will embrace the world in grey
             B    F#              G#m  E
And the sun    will set for you

Solo2: (B F# G#m E)

E|-------------------------------------------------|  
B|----17----19----19----19----19----17----17----17-| repeat  
G|-16----16----16----16----16----16----16----16----|
D|-------------------------------------------------|  
A|-------------------------------------------------|  
D|-------------------------------------------------|

              B                     F#
And the shadow of the day
           G#m                      E
Will embrace the world in grey
             B    F#              G#m  E  B
And the sun    will set for you



PS: If you have a correction, send to me: l.vieira59@yahoo.com
Suggest correction
comments
print report bad tab
guest
You may want to rate the tab now too:
select rating
Wanna post a correction for this tab? Suggest correction