Oops, an error
Loading. Please wait.

Somewhere I Belong Tab

61,126 views 66 this week
14 commentsread comments
1 2 3 4 5
excellent!
x 29
add to favorites
launch autoscroll
font size
0
reset
how to read this tab
guitar tuner
Autoscroll
slow
fast
+/-
esc
set tempo
stop
Help us to improve Ultimate-Guitar.com Take our survey!
×
Author
-----------------------------------------------------------------------------
                    Somewhere I Belong - Linkin Park
-----------------------------------------------------------------------------
Tabbed by: Shifty
Email: av_shifty_lp@hotmail.com

Tuning: Standard

[Intro]
Gtr 1 (acoustic with backward loop effect)
(Rhythm Fig. 1)
e|-----------------------------------------------------|
B|o--3-3-3--3---------------------------0-------0-----o|
G|---4-4-4--4----4-4---4----6-6-6--6----0-------0------| repeat 2x
D|---4-4-4--4----5-5---5----7-7-7--7----0-(h2)--2------|
A|o--2-2-2--2----5-5---5----7-7-7--7----0-(h2)--2-----o|
E|---------------3-3---3----5-5-5--5----0-------0------|
(strum then hammer-on half a beat later)

 Gtr 2 (clean)
 (Rhy. Fig. 2), Gtr 1 plays Fig. 1 two times
e|-----------------------------------|
B|o---------10--------------10------o|
G|----11--------11----11--------11---| 4x
D|--9-----9---------9-----9----------|
A|o---------------------------------o|
E|-----------------------------------|

 Gtr 3 (elec. w/ dist.) on last repeat
e|-------------------------|
B|-------------------------|
G|-11==volume swell========|
D|-9=====fade in===========|
A|-------------------------|
E|-------------------------|

 Gtr 3                  1._______________________ 2.___________________
e|---------------------|-------------------------|---------------------|
B|o-------------------o|-------------------------|---------------------|
G|->--------->---------|->------------->---------|->--------->---------|
D|-4-4-4-4-4-7-7-7-7-7-|12-12-12-12-12-9-9-9-9-9-|-7-7-7-7-7-2-2-2-2-2-|
A|o2-2-2-2-2-5-5-5-5-5o|10-10-10-10-10-7-7-7-7-7-|-7-7-7-7-7-2-2-2-2-2-|
E|-2-2-2-2-2-5-5-5-5-5-|10-10-10-10-10-7-7-7-7-7-|-5-5-5-5-5-0-0-0-0-0-|
> accented(strum harder)

 Gtr 4 (w/ dist.)       1._______________________ 2._________________  (Fill 1)
e|---------------------|-------------------------|---------------------|---|
B|o-------------------o|-------------------------|---------------------|---|
G|-8-8-8-8-8-9-9-9-9-9-|11-11-11-11-11-9-9-9-9-9-|-6-6-6-6-6-4-4-4-4-4-|-4=|
D|-x-x-x-x-x-x-x-x-x-x-|x--x--x--x--x--x-x-x-x-x-|-x-x-x-x-x-x-x-x-x-x-|-x-|
A|o6-6-6-6-6-7-7-7-7-7o|9--9--9--9--9--7-7-7-7-7-|-4-4-4-4-4-2-2-2-2-2-|-2=|
E|---------------------|-------------------------|---------------------|---|

[Pre-Verse]
Gtr 1 w/ Fig. 1 one time
Gtr 4 w/ Fill 1

[Verse 1]
Gtr 1 w/ Fig 1 four times
Gtr 2 w/ Fig 2 eight times

 [Pre-Chorus]
 Gtr 3 (Fill 2)
e|------|------|
B|------|------|
G|------|------| [all natural harmonics]
D|------|------| lay finger across fret bar and don't push down.
A|------|------| 
E|-[7777|7777]-| d=downstroke; u=upstroke
dudu dudu

[Chorus] (Rhy. Fig. 3)
 Gtr 3 1.,2.,3._________________ 4.___________________
e|---------------------|-------------------------|---------------------|
B|o-------------------o|-------------------------|---------------------|
G|->--------->---------|->------------->---------|->--------->---------|
D|-4-4-4-4-4-7-7-7-7-7-|12-12-12-12-12-9-9-9-9-9-|-7-7-7-7-7-2-2-2-2-2-|
A|o2-2-2-2-2-5-5-5-5-5o|10-10-10-10-10-7-7-7-7-7-|-7-7-7-7-7-2-2-2-2-2-|
E|-2-2-2-2-2-5-5-5-5-5-|10-10-10-10-10-7-7-7-7-7-|-5-5-5-5-5-0-0-0-0-0-|

 Gtr 4 1.,2.,3._________________ 4.___________________
e|---------------------|-------------------------|---------------------|
B|o-------------------o|-------------------------|---------------------|
G|-8-8-8-8-8-9-9-9-9-9-|11-11-11-11-11-9-9-9-9-9-|-6-6-6-6-6-4-4-4-4-4-|
D|-x-x-x-x-x-x-x-x-x-x-|x--x--x--x--x--x-x-x-x-x-|-x-x-x-x-x-x-x-x-x-x-|
A|o6-6-6-6-6-7-7-7-7-7o|9--9--9--9--9--7-7-7-7-7-|-4-4-4-4-4-2-2-2-2-2-|
E|---------------------|-------------------------|---------------------|

[Verse 2]
Gtr 1 w/ Fig 1 four times
Gtr 2 w/ Fig 2 eight times

[Pre-Chorus]
Gtr 3 w/ half of Fill 2

[Chorus]
Gtr 3 and Gtr 4 w/ Fig. 3

 [Bridge]
 Gtr 3 and Gtr 4
e|------------------------------------------------------------|
B|o------->-------------->-------------->-------------->-----o|
G|-->--->-11-11---->--->-11-11---->--->-11-11---->--->-6/7\6*-| 2x
D|--4---4-x--x-----5---5-x--x-----7---7-x--x-----2---2-x------|
A|o-2---2-9--9-----5---5-9--9-----7---7-9--9-----2---2-4/5\4*o|
E|--2---2----------3---3----------5---5----------0---0--------|
*slide without restrumming

e|------------------------------------------------------------|
B|-------->-------------->-------------->-------------->------|
G|-->--->-11-11---->--->-14-14---->--->-11-11---->--->-6/7\6*-| 
D|--4---4-x--x-----5---5-x--x-----7---7-x--x-----2---2-x------|
A|--2---2-9--9-----5---5-12-12----7---7-9--9-----2---2-4/5\4*-|
E|--2---2----------3---3----------5---5----------0---0--------|

e|------------------------------------------------------------|
B|-------->-------------->-------------->-------------->------|
G|-->--->-11-11---->--->-11-11---->--->-9--9----->--->-7\\\\4-|
D|--4---4-x--x-----5---5-x--x-----7---7-x--x-----2---2-x------|
A|--2---2-9--9-----5---5-9--9-----7---7-7--7-----2---2-5\\\\2-|
E|--2---2----------3---3----------5---5----------0---0--------|
slow slide
Gtr 3 w/ Fill 2

Outro Chorus
Gtr 3 and Gtr 4 w/ Fig. 3 twice

 [Outro]
 Gtr 3 3x
e|----------------------------|---------------|||
B|o--------------------------o|---------------|||
G|----------------------------|---------------|||
D|--4-4-4-4-4-4-4-------------|-4-4-4-4-4-4-4-|||
A|o-2-2-2-2-2-2-2------------o|-2-2-2-2-2-2-2-|||
E|--2-2-2-2-2-2-2--[7-7-7-7]--|-2-2-2-2-2-2-2-|||



************************************

| x  Dead note
| >  Accented note
| /  Slide up
| \  Slide down

************************************
Suggest correction
comments
print report bad tab
14 comments total. Showing first comments.
+1 reply
vince1389 51 wrote on December 11 2006, 09:26 pm

dude awsome tab! linkin park rocks!

+6 reply
JL Sevenfold 697 wrote on June 11 2007, 12:18 pm

The tab isn't in standard tuning, it's in Eb tuning.
The notes are still right though. Just a correction.

+1 reply
JL Sevenfold 697 wrote on June 11 2007, 12:20 pm

Standard tuning is EADGBE, Eb is that but everything flatted.
Sorry for the double post, just a clarification

guest
You may want to rate the tab now too:
select rating
Please do not post tabs as comments. Select "correction" instead!