Oops, an error
Loading. Please wait.

Somewhere I Belong Tab

15,389 views 1 this week
no commentswrite comment
1 2 3 4 5
please rate
add to favorites
launch autoscroll
font size
0
reset
how to read this tab
guitar tuner
Autoscroll
slow
fast
+/-
esc
set tempo
stop
Help us to improve Ultimate-Guitar.com Take our survey!
×
Author
Artist: Linkin Park
Title: Somewhere I belong
Album: Meteora
Guitarist: Brad Delson, Mike Shinoda
Version: Album
tabbed by:Jim #4
Email: Megalomaniac@grin.de

Drop D 1/2 step down
(Db,Ab,Db,Gb,Bb,Eb)
x=muted

Its not the way Brad and Mike are playing it but its sounds fine to me!!!
To play it the original way, Guitar 2 (rythm guitar) is tuned to standart sevenstring
1/2 step down A#, D#, G#, C#, F#, A#,D#. I placed the rythm guitar with this tunning
at the bottom. Leadguitar(Brad) stays the same!!

Intro (sample convertet to guitar, using a flanger would be fine):
Eb------------------------|
Bb-3----------------------|
Gb-4--4--6--3-------------|
Db-4--5--7--5-------------| Repeat
Ab-2--5--7--5-------------|
Db----5--7--5-------------|

Intro Guitar 1 clean:
Eb-------------------|
Bb----------13-------|
Gb----12-------12----|
Db-10----10----------| Repeat
Ab-------------------|
Db-------------------|

PreChorus Guitar 1(distortion) (Brad):
Eb----------------------|
Bb----------------------|
Gb----------------------|
Db--x-x-x-x-------------|
Ab--x-x-x-x-------------|
Db--x-x-x-x-------------|

PreChorus Guitar 2 (distortion, increasing volume):
Eb----------------------|
Bb----------------------|
Gb--4-------------------|
Db--x-------------------|
Ab--2-------------------|
Db----------------------|


Chorus Guitar 1:
Eb---------------------|
Bb---------------------|
Gb-8-9-11-9--8-9-6-4---|
Db-x-x-x--x--x-x-x-x---|
Ab-6-7-9--7--6-7-4-2---|
Db---------------------|

Chorus Guitar 2:
Eb---------------------|
Bb---------------------|
Gb-4-7-------4-7-------|
Db-4-7-7--2--4-7-7-2---|
Ab-2-5-5--2--2-5-7-2---|
Db---0-5--2----0-7-2---|

Verse Guitar 1 clean:
Eb-------------------|
Bb----------13-------|
Gb----12-------12----|
Db-10----10----------| Repeat
Ab-------------------|
Db-------------------|

PreChorus Guitar 1(distortion) (Brad):
Eb----------------------|
Bb----------------------|
Gb----------------------|
Db--x-x-x-x-------------|
Ab--x-x-x-x-------------|
Db--x-x-x-x-------------|

PreChorus Guitar 2 (distortion, increasing volume:
Eb----------------------|
Bb----------------------|
Gb--4-------------------|
Db--x-------------------|
Ab--2-------------------|
Db----------------------|


Chorus Guitar 1:
Eb---------------------|
Bb---------------------|
Gb-8-9-11-9--8-9-6-4---|
Db-x-x-x--x--x-x-x-x---|
Ab-6-7-9--7--6-7-4-2---|
Db---------------------|

Chorus Guitar 2:
Eb---------------------|
Bb---------------------|
Gb-4-7-------4-7-------|
Db-4-7-7--2--4-7-7-2---|
Ab-2-5-5--2--2-5-7-2---|
Db---0-5--2----0-7-2---|

Bridge Guitar 1:
Eb---------------------------------------------------|
Bb---------------------------------------------------|
Gb-----11111111-----11111111-----11111111------------|
Db-9-9-x-x-x-x--5-5-x-x-x-x--7-7-x-x-x-x--2-2-2-0----|
Ab-9-9-9-9-9-9--5-5-9-9-9-9--7-7-9-9-9-9--2-2-----4--|
Db-9-9----------5-5----------7-7----------2-2--------|

Bridge Guitar 2:
Eb---------------------------------------------------|
Bb---------------------------------------------------|
Gb--------------------------------------------9-7-6--|
Db-9-9----------5-5----------7-7----------2-2-x-x-x--|
Ab-9-9----------5-5----------7-7----------2-2-7-5-4--|
Db-9-9----------5-5----------7-7----------2-2--------|

Bridge Guitar 1:
Eb---------------------------------------------------|
Bb---------------------------------------------------|
Gb-----11111111-----11111111-----11111111------------|
Db-9-9-x-x-x-x--5-5-x-x-x-x--7-7-x-x-x-x--2-2-2-0----|
Ab-9-9-9-9-9-9--5-5-9-9-9-9--7-7-9-9-9-9--2-2-----4--|
Db-9-9----------5-5----------7-7----------2-2--------|

Bridge Guitar 2:
Eb---------------------------------------------------|
Bb---------------------------------------------------|
Gb--------------------------------------------9-7-6--|
Db-9-9----------5-5----------7-7----------2-2-x-x-x--|
Ab-9-9----------5-5----------7-7----------2-2-7-5-4--|
Db-9-9----------5-5----------7-7----------2-2--------|

Bridge Guitar 1:
Eb---------------------------------------------------|
Bb---------------------------------------------------|
Gb-----11111111-----11111111-----14141414------------|
Db-9-9-x-x-x-x--5-5-x-x-x-x--7-7-x-x-x-x--2-2-2-0----|
Ab-9-9-9-9-9-9--5-5-9-9-9-9--7-7-12121212-2-2-----4--|
Db-9-9----------5-5----------7-7----------2-2--------|

Bridge Guitar 2:
Eb---------------------------------------------------|
Bb---------------------------------------------------|
Gb--------------------------------------------9-7-6--|
Db-9-9----------5-5----------7-7----------2-2-x-x-x--|
Ab-9-9----------5-5----------7-7----------2-2-7-5-4--|
Db-9-9----------5-5----------7-7----------2-2--------|

Bridge Guitar 1:
Eb---------------------------------------------------|
Bb---------------------------------------------------|
Gb-----11111111-----11111111-----11111111------------|
Db-9-9-x-x-x-x--5-5-x-x-x-x--7-7-x-x-x-x--2-2-2-0----|
Ab-9-9-9-9-9-9--5-5-9-9-9-9--7-7-9-9-9-9--2-2-----4--|
Db-9-9----------5-5----------7-7----------2-2--------|

Bridge Guitar 2:
Eb---------------------------------------------------|
Bb---------------------------------------------------|
Gb--------------------------------------------9-7-6--|
Db-9-9----------5-5----------7-7----------2-2-x-x-x--|
Ab-9-9----------5-5----------7-7----------2-2-7-5-4--|
Db-9-9----------5-5----------7-7----------2-2--------|


Chorus Guitar 1:
Eb---------------------|
Bb---------------------|
Gb-8-9-11-9--8-9-6-4---|
Db-x-x-x--x--x-x-x-x---|
Ab-6-7-9--7--6-7-4-2---|
Db---------------------|

Chorus Guitar 2:
Eb---------------------|
Bb---------------------|
Gb-4-7-------4-7-------|
Db-4-7-7--2--4-7-7-2---|
Ab-2-5-5--2--2-5-7-2---|
Db---0-5--2----0-7-2---|


Outro Guitar 1

Eb------------------------|
Bb-12121212121212---------|
Gb-11111111111111---------|
Db-9-9-9-9-9-9-9-x-x-x-x--|
Ab-9-9-9-9-9-9-9-x-x-x-x--|
Db-9-9-9-9-9-9-9-x-x-x-x--|

Outro Guitar 2

Eb------------------------|
Bb------------------------|
Gb------------------------|
Db-9-9-9-9-9-9-9-x-x-x-x--|
Ab-9-9-9-9-9-9-9-x-x-x-x--|
Db-9-9-9-9-9-9-9-x-x-x-x--|

7-String rythm guitar Guitar 2

Pre Chorus (increase volume)

Guitar 2: Mike
D#--------|
A#--------|
F#--------|
C#---9----|
G#---x----|
D#---7----|
A#--------|

Chorus
D#-------------------------|
A#-------------------------|
F#-------------------------|
C#-----5-2------7-2--------|
G#-2-5-5-2--2-5-7-2--------|
D#-2-5-3-0--2-5-5-0--------|
A#-0-3------0-3------------|


Bridge
D#------------------------------------|
A#------------------------------------|
F#------------------------------------|
C#--99--------------------------------|
G#--99-------1010-------1212-------77-|
D#--77-------1010-------1212-------77-|
A#--00--------8-8-------1010-------55-|

Outro
D#-------------------|
A#-------------------|
F#-------------------|
C#-------------------|
G#-222222------------|
D#-222222------------|
A#-000000--*5*5*5*5--|
Suggest correction
Give kudos to tab author, rate the tab!
1 2 3 4 5
comments
print report bad tab
guest
You may want to rate the tab now too:
select rating
Please do not post tabs as comments. Select "correction" instead!