Oops, an error
Loading. Please wait.

System Tab

version 2
version 2

Whole song

580 views 1 this week
no commentswrite comment
1 2 3 4 5
please rate
add to favorites
launch autoscroll
font size
0
reset
how to read this tab
guitar tuner
Autoscroll
slow
fast
+/-
esc
set tempo
stop
Help us to improve Ultimate-Guitar.com Take our survey!
×
Author
Drop Db (Db Ab Db Gb Bb Eb)

Intro
Eb|-------------------------------|| 
Bb|-9-9-9-7-7-9-5-2-2-5-4-----4---|| 
Gb|-----------------------3-4-----|| 
Db|-------------------------------|| 
Ab|-------------------------------|| 
Db|-------------------------------||

Verse
Eb|--------------------------------|| 
Bb|-----6-5-----5-----6-5-----5b---|| 
Gb|-4-5-----4-5---4-5-----4-5------|| 
Db|--------------------------------|| 
Ab|--------------------------------|| 
Db|--------------------------------||

Chorus
Eb|-------------------------------------------------------------|| 
Bb|-------------------------------------------------------------|| 
Gb|-2-2-2-11-11-10-7-7-7-------2-2-2-11-11-10-------------------|| 
Db|-2-2-2-11-11-10-7-7-7-5-5-4-2-2-2-11-11-10-5-5-5-5-5-5-5-5---|| 
Ab|-0-0-0-9--9---8-5-5-5-5-5-4-0-0-0-9--9---8-5-5-5-5-5-5-5-5---|| 
Db|----------------------5-5-4----------------5-5-5-5-5-5-5-5---||
Suggest correction
Give kudos to tab author, rate the tab!
1 2 3 4 5
comments
print report bad tab
guest
You may want to rate the tab now too:
select rating
Please do not post tabs as comments. Select "correction" instead!