Oops, an error
Loading. Please wait.

The Catalyst Tab

version 1
version 1

Whole song

Interactive

29,707 views 12 this week
6 commentsread comments
1 2 3 4 5
accurate
x 11
add to favorites
launch autoscroll
font size
0
reset
how to read this tab
guitar tuner
Autoscroll
slow
fast
+/-
esc
set tempo
stop
Help us to improve Ultimate-Guitar.com Take our survey!
×
Author
Linkin Park
A Thousand Suns
2010

                  The Catalyst


INTRO:

   Dm    C     Bm    C     Dm    C     Bm    C
E:-5-----3-----1-----3-----5-----3-----1-----3------|
B:-6-----------3-----------6-----------3------------|
G:-7-----5-----------5-----7-----5-----------5------|
D:--------------------------------------------------|
A:--------------------------------------------------|
E:--------------------------------------------------|



  God bless us everyone
  We're a broken people living under loaded gun
  And it can't be outfought
  It can't be outdone
  It can't out matched
  It can't be outrun
  No

  (D5)
  God bless us everyone
  We're a broken people living under loaded gun
  And it can't be outfought
  It can't be outdone
  It can't out matched
  It can't be outrun

  (C5)
  No
  And when I close my eyes tonight
                          (D5)
  To symphonies of blinding light
  God bless us everyone
  We're a broken people living under loaded gun
  (C5)
  Oh
  Like memories in cold decay
                      (A5)
  Transmissions echoing away
  Far from the world of you and I
  Where oceans bleed into the sky


E:------------------------------------|
B:-----6-5-3--3------3--5-------------|
G:---2----------2--0------5-7-5-0-----|
D:------------------------------------| 
A:------------------------------------|
E:------------------------------------| 4x and in the verses

  (D5)
  God save us everyone,
  Will we burn inside the fires of a thousand suns?
  For the sins of our hand
  The sins of our tongue
  The sins of our father
  The sins of our young


   D5  (guitar starts from here)  (64 strokes)
E:-------------------------------------------------------------------|
B:-------------------------------------------------------------------|
G:-------------------------------------------------------------------|
D:-7777777777777777777777777777777777777777777777777777777777777777--|
A:-5555555555555555555555555555555555555555555555555555555555555555--|
E:-------------------------------------------------------------------|
  No
  God save us everyone,
  Will we burn inside the fires of a thousand suns?
  For the sins of our hand
  The sins of our tongue
  The sins of our father
  The sins of our young


   C5      (D5)     (E5)     (F5)
E:----------------------------------------------------|
B:----------------------------------------------------|
G:----------------------------------------------------|
D:-55555555-77777777-99999999-1010101010101010--------|
A:-33333333-55555555-77777777-8-8-8-8-8-8-8-8---------|
E:----------------------------------------------------|
  No
  And when I close my eyes tonight 
  To symphonies of blinding
   D5
E:----------------------------------------------------|
B:----------------------------------------------------|
G:----------------------------------------------------|
D:-77777777777777777777777777777777-------------------|
A:-55555555555555555555555555555555-------------------|
E:----------------------------------------------------|
                             
  light  
  God save us everyone, 
  Will we burn inside the 
  fires of a thousand suns?

   C5      (D5)     (E5)     (F5)
E:----------------------------------------------------|
B:----------------------------------------------------|
G:----------------------------------------------------|
D:-55555555-77777777-99999999-1010101010101010--------|
A:-33333333-55555555-77777777-8-8-8-8-8-8-8-8---------|
E:----------------------------------------------------|
  Oh
  Like memories in cold decay
  Transmissions echoing 
   A5
E:----------------------------------------------------|
B:----------------------------------------------------|
G:----------------------------------------------------|
D:-14141414141414141414141414141414-------------------|
A:-12121212121212121212121212121212-------------------|
E:----------------------------------------------------|
  away
  Far from the world of you and I

  Where oceans bleed into the sky


solo:


E:--------------------------------------------------------------------------|
B:--------------------------------------------------------------------------|
G:-5s7-7-7--7-7--5-5-5-55--2-2-2----5s7-7-7--7-7--5-5-5-55--2-2-2--(x2)-----|
D:--------------------------------------------------------------------------|
A:--------------------------------------------------------------------------|
E:--------------------------------------------------------------------------|
   D5                                C5
E:--------------------------------------------------------------------------|
B:--------------------------------------------------------------------------|
G:--------------------------------------------------------------------------|
D:-77777777777777777777777777777777--55555555555555555555555555555555-------|
A:-55555555555555555555555555555555--33333333333333333333333333333333-------|
E:--------------------------------------------------------------------------|



E:--------------------------------------------------------------------------|
B:--------------------------------------------------------------------------|
G:-3-3-3-3--5-5-5-5--7-7-7-7--9-9-9-9--7-7-9-9-10-10-9-9-7-7-9-9-10-10-9-9--|
D:--------------------------------------------------------------------------|
A:--------------------------------------------------------------------------|
E:--------------------------------------------------------------------------|
   Bb5
E:--------------------------------------------------------------------------|
B:--------------------------------------------------------------------------|
G:--------------------------------------------------------------------------|
D:--------------------------------------------------------------------------|
A:-8888888888888888888888888888888888888888888888888888888888888888---------|
E:-6666666666666666666666666666666666666666666666666666666666666666---------|



E:-----------------------------------------------------------------|
B:-----------------------------------------------------------------|
G:-77-7-9--7-9--7-9--77-9-9b-9b--7-9--7-9--7-9--77-9-9b-9b-9b--...-|
D:-----------------------------------------------------------------|
A:-----------------------------------------------------------------|
E:-----------------------------------------------------------------|
   A5                           Bb5   (C5)
E:--------------------------------------------------------------------------|
B:--------------------------------------------------------------------------|
G:--------------------------------------------------------------------------|
D:------------------------------------to verse------------------------------|
A:-7777777777777777777777777777-8888--(1010101010101010)--------------------|
E:-5555555555555555555555555555-6666--(8-8-8-8-8-8-8-8-)--------------------|

-----------------------------------------------------------------------------

   C5      (D5)     (E5)     (F5)
E:----------------------------------------------------|
B:----------------------------------------------------|
G:----------------------------------------------------|
D:-55555555-77777777-99999999-1010101010101010--------|
A:-33333333-55555555-77777777-8-8-8-8-8-8-8-8---------|
E:----------------------------------------------------|
  Like memories in cold decay
  Transmissions echoing 
   A5
E:---------------------------------------------------------------------|
B:---------------------------------------------------------------------|
G:---------------------------------------------------------------------|
D:-1414141414141414141414141414141414141414141414141414141414141414----|
A:-1212121212121212121212121212121212121212121212121212121212121212----|
E:---------------------------------------------------------------------|
  away
  Far from the world of you and I
  Where oceans bleed into the sky


   Dm      Am       C      G      Dm     Am     C      G
E:-1--1----0--------0--0----------1--1---0------0--0---------|
B:-3--3----1---1--3-1--1---3--3---3--3---1--1-3-1--1-----3---|
G:-2-------2--------0--0---0----0-2--2---2------0--0---0---0-|
D:-0---0-----------(2)-----0------0------2------2------0-----|
A:---------0--------3---------------------------3------------|
E:-------------------------3---------------------------3-----|
                                                         to the end...
E:-----------------------------------------------------------|
B:-----6-5-3--------3--5-----------6-5-3--------3--5---------|
G:---2--------2--2-------5-7-5---2--------2--2-------5-7-5---|
D:-----------------------------------------------------------|
A:-----------------------------------------------------------|
E:-----------------------------------------------------------|


  Lift me up
  Let me go (x4)

   Dm (electric-guitar plays Dm all the time to the last verse)
E:---------------------------------------------------------------------|
B:---------------------------------------------------------------------|
G:-1414141414141414141414141414141414141414141414141414141414141414----|
D:-1212121212121212121212121212121212121212121212121212121212121212----|x4 (128 strokes)
A:---------------------------------------------------------------------|
E:---------------------------------------------------------------------|
  Lift me up
  Let me go (x2)

  God bless us everyone
  We're a broken people living under loaded gun
  And it can't be outfought
  Can't be outdone
  It can't out matched
  It can't be outrun
  No

  
  (Only piano remains)

  God bless us everyone
  We're a broken people living under loaded gun
  And it can't be outfought
  Can't be outdone
  It can't out matched
  It can't be outrun




RATE!!! please, it sounds completely accurate to me.

the tab is made after this video
http://www.youtube.com/watch?v=bftTUAIVMUQ&feature=player_embedded

                           ...
Suggest correction
What's this?
You can suggest a correction to this tab. Community and Mods will review your correction and vote to approve or reject it.
comments
print report bad tab
6 comments total. Showing first comments.
0 reply
sguitar 1,206 wrote on August 25 2010, 11:12 am

can someone tell me what's wrong with this tab?

+2 reply
travislausch 6,603 wrote on September 6 2010, 07:55 pm

Honestly, whoever rated it 2-star didn't play through it. Sure, there are some errors, but nothing glaring.

0 reply
in_the_end 22 wrote on April 28 2011, 11:35 am

I thought it was excellent!

guest
You may want to rate the tab now too:
select rating
Please do not post tabs as comments. Select "correction" instead!