Oops, an error
Loading. Please wait.

Untitled Tab

558 views 1 this week
10 commentsread comments
1 2 3 4 5
worth learning
x 9
add to favorites
launch autoscroll
font size
0
reset
how to read this tab
guitar tuner
Autoscroll
slow
fast
+/-
esc
set tempo
stop
Help us to improve Ultimate-Guitar.com Take our survey!
×
Author
Author/Artist: Linkin Park
Title: The Untitled
Album: Hybrid Theory
Tuning: Dropped D one half step down
C# G# C# F# A# D#

-|-DJ(piano)----------------------------------------------------------------|-
-|--------------------------------------------------------------------------|-
-|---4-4-0---------0---4-4-0---------0---4-4-0---------0---4-4-0------------|-
-|-2-------4-4-4-4---2-------4-4-4-4---2-------4-4-4-4---2-------4----------|-
-|--------------------------------------------------------------------------|-
-|--------------------------------------------------------------------------|-
   Played at different intervals and at(in<-hehe) the end as well

   [Verse] Clean 
-|------*7-------*12--------------------------------------------------------|-
-|---*7-------*7------------------------------------------------------------|-
-|-*5-------*5--------------------------------------------------------------|-
-|--------------------------------------------------------------------------|-
-|--------------------------------------------------------------------------|-
-|--------------------------------------------------------------------------|-
   Play 4 times, (and through chorus on CD)                                   
   *=Harmonic

   [Chorus] Distortion
-|--------------------------------------------------------------------------|-
-|--------------------------------------------------------------------------|-
-|--------7--5-----------7--5-\-4-------------------------------------------|-
-|-2-/-5--7--5--0-2-/-5--7--5-\-4-------------------------------------------|-
-|-2-/-5--5--3--0-2-/-5--5--3-\-2-------------------------------------------|-
-|-2-/-5--0-----0-2-/-5--0--------------------------------------------------|-
   Play once
                                                                           
   [Verse] Clean 
-|------*7-------*12--------------------------------------------------------|-
-|---*7-------*7------------------------------------------------------------|-
-|-*5-------*5--------------------------------------------------------------|-
-|--------------------------------------------------------------------------|-
-|--------------------------------------------------------------------------|-
-|--------------------------------------------------------------------------|-
   Play 4 times

   [Chorus(altered)] Distortion
-|--------------------------------------------------------------------------|-
-|--------------------------------------------------------------------------|-
-|--------7--5-----------7--5---5-------------------------------------------|-
-|-2-/-5--7--5--0-2-/-5--7--5---5-------------------------------------------|-
-|-2-/-5--5--3--0-2-/-5--5--3---3-------------------------------------------|-
-|-2-/-5--0-----0-2-/-5--0------3-------------------------------------------|-
   Play once

   [Chorus] Distortion
-|--------------------------------------------------------------------------|-
-|--------------------------------------------------------------------------|-
-|--------7--5-----------7--5-----------------------------------------------|-
-|-2-/-5--7--5--0-2-/-5--7--5-----------------------------------------------|-
-|-2-/-5--5--3--0-2-/-5--5--3-----------------------------------------------|-
-|-2-/-5--0-----0-2-/-5--0--------------------------------------------------|-
   Play Twice                                                                        

-|-DJ(piano)---------|-------0-2-3-2----------------------------------------|-
-|-------------------|-----0------------------------------------------------|-
-|---4-4-0---------0-|---0--------------------------------------------------|-
-|-2-------4-4-4-4---|-2----------------------------------------------------|-
-|-------------------|------------------------------------------------------|-
-|-------------------|------------------------------------------------------|-
   Play 4 times        Once
Suggest correction
comments
print report bad tab
10 comments total. Showing first comments.
0 reply
sane_person 396 wrote on April 15 2003, 12:00 am

this somewhat sounds like in the end. it sucks though

0 reply
LPfan4603 30 wrote on August 16 2003, 12:00 am

this is in the end u freakin retard

0 reply
LPfan4603 30 wrote on August 16 2003, 12:00 am

and not even a good version at that

guest
You may want to rate the tab now too:
select rating
Wanna post a correction for this tab? Suggest correction