Oops, an error
Loading. Please wait.

Valentines Day bass

version 1
version 1

Whole song

Interactive

9,290 views 6 this week
2 commentsread comments
1 2 3 4 5
x 12
add to favorites
×
Save as Personal and add changes to this tab that will be seen only by you. Learn more ›
×
You can save this tab as Personal to edit and correct it or add notes. All changes will be seen only by you. Learn more »
launch autoscroll
font size
0
reset
guitar tuner
edit
Autoscroll
slow
fast
+/-
esc
set tempo
stop
Author
Difficulty
Guitar, Vocals and Intro

After 8 Beats of drum intro

[Intro/Verse]
G|-----------------------------------------------------------------|
D|-----------------------------------------------------------------|
A|-5-5-5-5-5-5-5-5-5-5-5-5-5-5-5-5-----------------3-3-3-3-3-3-3-3-|
E|---------------------------------1-1-1-1-1-1-1-1-----------------|

G|-----------------------------------------------------------------|
D|-----------------------------------------------------------------|
A|-1-1-1-1-1-1-1-1-3-3-3-3-3-3-3-3-----------------3-3-3-3-3-3-3-3-|
E|---------------------------------1-1-1-1-1-1-1-1-----------------|

G|---------------------------------|
D|---------------------------------|
A|-1-1-1-1-1-1-1-1-3-3-3-3-3-3-3-3-|
E|---------------------------------|

[Verse 2]
G|-----------------------------------------------------------------|
D|-----------------------------------------------------------------|
A|-5-5-5-5-5-5-5-5-5-5-5-5-5-5-5-5-----------------3-3-3-3-3-3-3-3-|
E|---------------------------------1-1-1-1-1-1-1-1-----------------| x4

G|-----------------------------------------------------------------|
D|-----------------------------------------------------------------|
A|-1-1-1-1-1-1-1-1-3-3-3-3-3-3-3-3-----------------3-3-3-3-3-3-3-3-|
E|---------------------------------1-1-1-1-1-1-1-1-----------------| x2

G|---------------------------------|
D|---------------------------------|
A|-1-1-1-1-1-1-1-1-3-3-3-3-3-3-3-3-|
E|---------------------------------|

[Interlude]
G|-----------------------------------------------------------------|
D|-----------------------------------------------------------------|
A|-1-1-1-1-1-1-1-1-3-3-3-3-3-3-3-3---------------------------------|
E|---------------------------------1-1-1-1-1-1-1-1-3-3-3-3-3-3-3-3-|

G|-----------------|
D|-----------------|
A|-1-1-1-1-1-1-1-1-|
E|-----------------|

[Chorus]
G|-----------------------------------------------------------------|
D|-----------------------------------------------------------------|
A|-5-5-5-5-5-5-5-5-5-5-5-5-5-5-5-5-----------------3-3-3-3-3-3-3-3-|
E|---------------------------------1-1-1-1-1-1-1-1-----------------|

Great song
Hocus Pocus

            
            
Suggest correction
Creating personal tab
Creating personal tab
You can edit any tab online and save it as your Personal.

You can edit, replace or remove any tab part or add personal notes – all changes will be seen only by you.

Personal tabs can be accessed anytime from any device, even offline.
Learn more »
comments
print report bad tab
2 comments total.
0 reply
JL Sevenfold 697 Jun 20, 2007 09:46 AM

I tried tabbing it and got octaves in some spots, but you could get
away with playing it this way

0 reply
just a name 437 Jun 10, 2016 01:26 PM

[Interlude]
G|-----------------------------------------------------------------|
D|-----------------------------------------------------------------|
A|-1-1-1-1-1-1-1-1-3-3-3-3-3-3-3-3---------------------------------|
E|---------------------------------1-1-1-1-1-1-1-1-5-5-5-5-5-5-5-5-|

guest
You may want to rate the tab now too:
select rating
Wanna post a correction for this tab? Suggest correction