Oops, an error
Loading. Please wait.

Valentines Day Tab

version 1
version 1

Whole song

Interactive

Video

48,556 views 12 this week
1 commentread comment
1 2 3 4 5
accurate
x 5
add to favorites
launch autoscroll
font size
0
reset
how to read this tab
guitar tuner
Autoscroll
slow
fast
+/-
esc
set tempo
stop
Help us to improve Ultimate-Guitar.com Take our survey!
×
Author
Intro:

Lead guitar:
e|-----------------------------------------------------------------|
B|----------8-10-8------8---------------8-10-8----8----------------|
G|--7-10-7----------10----10---10----10--------10---10-------------|
D|--------------------------------10-------------------------------|
A|-----------------------------------------------------------------|
E|-----------------------------------------------------------------|

Rhythm guitar:
e|-----------------------------------------------------------------|
B|-----------------------------------------------------------------|
G|--7--7--7--7--7--7--7--7-------5--5--5--5--5--5--5--5------------|
D|-----------------------------------------------------------------|
A|-----------------------------------------------------------------|
E|-----------------------------------------------------------------|


Keep Repeating this till the solo:
e|-------------------------------------------------------------------|
B|-----------8-10-8----8----------------8-10-8----8------------------|
G|-10-7-10-7--------10---10----10----10--------10---10---------------|
D|--------------------------------10---------------------------------|
A|-------------------------------------------------------------------|
E|-------------------------------------------------------------------|



Rhythm guitar changes to this at(0:27)

  play softly with palm mute
e|-----------------------------|
B|-----------------------------|
G|-----------------------------|
D|-7--------------5------------|
A|-5(x16)-3-------3(x8)--------|
E|--------1(x8)----------------|


Chorus 1:

e|---------------------------------------------------------|
B|---------------------------------------------------------|
G|---------------------------------------------------------|
D|-----3------5-------------5------3------5------7---------|
A|-----1(x8)--3(x8)--3------3(x8)--1(x8)--3(x8)--5---------|
E|-------------------1(x8)---------------------------------|

 And the clouds...

Verse 2:

Repeat x3
e|---------------------------------------------|
B|---------------------------------------------|
G|---------------------------------------------|
D|---------------------------5--------7--------|
A|-----------------3---------3(x8)----5(x8)----|
E|-----------------1(x16)----------------------|

I used to be my own protection....


e|---------------------|
B|---------------------|
G|---------------------|
D|----------5----------|
A|---3------3(x8)------|
E|---1(x8)-------------|


Chorus 2:

e|-------------------------------------------------------|
B|-------------------------------------------------------|
G|-------------------------------------------------------|
D|-----3------5-------------5------3------5--------------|
A|-----1(x8)--3(x8)--3------3(x8)--1(x8)--3(x8)----------|
E|-------------------1(x8)-------------------------------|

 And the clouds...





Solo (1:47):

e|----------------------------|
B|----------------------------|
G|--10-10-10--7--10--9---10---|
D|------------7------10-------|
A|---------------8------------|
E|----------------------------|


e|---13--10-----13--10-----13-10----13-10-----13-10------10---|
B|----------10---------10--------10-------10--------10--------|
G|------------------------------------------------------------|
D|------------------------------------------------------------|
A|------------------------------------------------------------|
E|------------------------------------------------------------|


e|--13---------13----------13--------13---------13-------------------|
B|-----13--10------13--10-----13-10------13-10------13--10--13-------|
G|-------------------------------------------------------------------|
D|-------------------------------------------------------------------|
A|-------------------------------------------------------------------|
E|-------------------------------------------------------------------|

This repeating until ending

e|----17--13-----17--13------17-13------------------|
B|-----------13----------13--------13---------------|
G|--------------------------------------------------|
D|--------------------------------------------------|
A|--------------------------------------------------|
E|--------------------------------------------------|



Rhythm guitar(2:05)
e|-----------------------------------------|
B|-----------------------------------------|
G|-----------------------------------------|
D|--3-----5------------3-----5-------------|
A|--1(x4)-3(x4)--3-----1(x4)-3(x4)---------|
E|---------------1(x4)---------------------|


Ending:

repeat
e|---------------------------------|
B|---------------------------------|
G|--7-------3-------5--------------|
D|--7-------3-------5--------------|
A|--5(x16)--1(x8)---3(x8)----------|
E|---------------------------------|





Suggest correction
What's this?
You can suggest a correction to this tab. Community and Mods will review your correction and vote to approve or reject it.
comments
print report bad tab
1 comment total.
0 reply
gareno 164 wrote on June 27 2007, 10:55 pm

yea its pretty good

guest
You may want to rate the tab now too:
select rating
Please do not post tabs as comments. Select "correction" instead!