Oops, an error
Loading. Please wait.

Valentines Day bass

version 2
version 2

Whole song

Interactive

2,713 views 1 this week
2 commentsread comments
1 2 3 4 5
x 4
add to favorites
×
Save as Personal and add changes to this tab that will be seen only by you. Learn more ›
×
You can save this tab as Personal to edit and correct it or add notes. All changes will be seen only by you. Learn more »
launch autoscroll
font size
0
reset
guitar tuner
edit
Autoscroll
slow
fast
+/-
esc
set tempo
stop
Valentine’s Day, Drop D

This is one of my favorite songs off M2M, mainly for 
how the chorus picks up.

verse (starts just before Chester sings “And now the darkness…”)
|---------------------------------------------------------------------------------|
|-0-0-0-0-0-0-0-0-0-0-0-0-0-0-0-0-------------------------------------------------|
|-------------------------------------------------3-3-3-3-3-3-3-3-1-1-1-1-1-1-1-1-|
|---------------------------------3-3-3-3-3-3-3-3---------------------------------|

|---------------------------------------------------------------------------------|
|-----------------3-3-3-3-3-3-3-3-------------------------------------------------|
|-3-3-3-3-3-3-3-3-----------------3-3-3-3-3-3-3-3-1-1-1-1-1-1-1-1-3-3-3-3-3-3-3-3-|
|---------------------------------------------------------------------------------|


Break, then:
|-------------------------------------------------|
|-------------------------------------------------|
|---------------------------------3-3-3-3-3-3-3-3-|
|-3-3-3-3-3-3-3-3-3-3-3-3-3-3-3-3-----------------|

|-----------------------------------------------------------------|
|-0-0-0-0-0-0-0-0-0-0-0-0-0-0-0-0---------------------------------|
|-------------------------------------------------3-3-3-3-3-3-3-3-|
|---------------------------------3-3-3-3-3-3-3-3-----------------| x3

|-----------------------------------------------------------------|
|---------------------------------3-3-3-3-3-3-3-3-----------------|
|-1-1-1-1-1-1-1-1-3-3-3-3-3-3-3-3-----------------3-3-3-3-3-3-3-3-|
|-----------------------------------------------------------------| x2

|---------------------------------|
|---------------------------------|
|-1-1-1-1-1-1-1-1-3-3-3-3-3-3-3-3-|
|---------------------------------|

Pre Chorus
|---------------------------------------------------------------------------------|
|---------------------------------3-3-3-3-3-3-3-3---------------------------------|
|-1-1-1-1-1-1-1-1-3-3-3-3-3-3-3-3-----------------0-0-0-0-0-0-0-0-1-1-1-1-1-1-1-1-|
|---------------------------------------------------------------------------------|

Chorus
|-----------------------------------------------------------------|
|-----------------------------------------------------------------|
|-5-5-5-5-5-5-5-5-5-5-5-5-5-5-5-5-----------------3-3-3-3-3-3-3-3-|
|---------------------------------3-3-3-3-3-3-3-3-----------------| repeat until end
Suggest correction
Creating personal tab
Creating personal tab
You can edit any tab online and save it as your Personal.

You can edit, replace or remove any tab part or add personal notes – all changes will be seen only by you.

Personal tabs can be accessed anytime from any device, even offline.
Learn more »
comments
print report bad tab
2 comments total.
0 reply
Jose Montoya 103 Aug 06, 2007 12:14 PM

OMG I LOVE THIS SONG!!!!!!!!!!!
i never knew what it was like, to be alone....

ON A VALENTINES DDDDDDDDAAAAAAAAAAAAYYYYYYYYYYYYYYYYY!!!!!!!!
yeah this song rocks!

0 reply
MarvelCrawler 10 Aug 07, 2007 09:19 AM

Love it!

guest
You may want to rate the tab now too:
select rating
Wanna post a correction for this tab? Suggest correction