Oops, an error
Loading. Please wait.

Valentines Day Tab

version 3
version 3

Whole song

Interactive

Video

3,132 views 3 this week
no commentswrite comment
1 2 3 4 5
accurate
x 1
add to favorites
launch autoscroll
font size
0
reset
how to read this tab
guitar tuner
Tab Pro tools
  • play this tab
  • loop segment
  • change instrument
  • show fretboard
  • metronome
Autoscroll
slow
fast
+/-
esc
set tempo
stop
Contributor
Linkin Park - Valentine's Day

Guitar 1 Drop D (Clean w/Delay & Reverb)(Distorted For Last Chorus)
Guitar 2 Drop D (Distorted)

Guitar 1 Plays Octaves In Last Chorus/Outro & Guitar 2 Play The 2 Note Powerchords.

Verses...
|-----------5-------------------------------5---------------------|
|---6---8-------8---6---8---6---6---6---8-------8---6---8---6---6-|
|-7---7---7---7---7---7---7---7---5---5---5---5---5---5---5---5---|
|-----------------------------------------------------------------|
|-----------------------------------------------------------------|
|-----------------------------------------------------------------|

|-----------5-------------------------------5---------------------|
|---6---8-------8---6---8---6---6---6---8-------8---6---8---6---6-|
|-7---7---7---7---7---7---7---7---5---5---5---5---5---5---5---5---|
|-----------------------------------------------------------------|
|-----------------------------------------------------------------|
|-----------------------------------------------------------------|

|-----------5-------------------------------5---------------------|
|---6---8-------8---6---8---6---6---6---8-------8---6---8---6---6-|
|-7---7---7---7---7---7---7---7---5---5---5---5---5---5---5---5---|
|-----------------------------------------------------------------|
|-----------------------------------------------------------------|
|-----------------------------------------------------------------|

|-----------5-------------------------------5---------------------|
|---6---8-------8---6---8---6---6---6---8-------8---6---8---6---6-|
|-7---7---7---7---7---7---7---7---5---5---5---5---5---5---5---5---|
|-----------------------------------------------------------------|
|-----------------------------------------------------------------|
|-----------------------------------------------------------------|

Chorus'...
|-----------5-------------------------------5---------------------|
|---6---8-------8---6---8---6---6---6---8-------8---6---8---6---6-|
|-7---7---7---7---7---7---7---7---5---5---5---5---5---5---5---5---|
|-----------------------------------------------------------------|
|-----------------------------------------------------------------|
|-----------------------------------------------------------------|

|-----------5---------------------|
|---6---8-------8---6---8---6---6-|
|-7---7---7---7---7---7---7---7---|
|---------------------------------|
|---------------------------------|
|---------------------------------|

Leading To Break Down...
Guitar 2 (Pm)
|-----------------------------------------------------------------|
|-----------------------------------------------------------------|
|-----------------------------------------------------------------|
|-----------------------------------------------------------------|
|-1-1-1-1-1-1-1-1-3-3-3-3-3-3-3-3-----------------3-3-3-3-3-3-3-3-|
|---------------------------------3-3-3-3-3-3-3-3-----------------|

|-----------5-------------------------------5---------------------|
|---6---8-------8---6---8---6---6---6---8-------8---6---8---6---6-|
|-7---7---7---7---7---7---7---7---5---5---5---5---5---5---5---5---|
|-----------------------------------------------------------------|
|-----------------------------------------------------------------|
|-----------------------------------------------------------------|

Break Down (No Guitar)

Bridge - Guitar 1 (Pm)
|-------------------------------------------------------------|
|-------------------------------------------------------------|
|-------------------------------------------------------------|
|-------------------------------------------------------------|
|-88888888-10-10-10-10-10-10-10-10-33333333-77777777-88888888-|
|-88888888-10-10-10-10-10-10-10-10-33333333-77777777-88888888-|

Last Chorus/Outro...

Guitar 1 (Distorted)...
|-----------------------------------------------------------------|
|-----------------------------------------------------------------|
|-7-7-7-7-7-7-7-7-7-7-7-7-7-7-7-7-7-7-7-7-7-7-7-7-7-7-7-7-9-9-9-9-|
|-x-x-x-x-x-x-x-x-x-x-x-x-x-x-x-x-x-x-x-x-x-x-x-x-x-x-x-x-x-x-x-x-|
|-5-5-5-5-5-5-5-5-5-5-5-5-5-5-5-5-5-5-5-5-5-5-5-5-5-5-5-5-7-7-7-7-|
|-----------------------------------------------------------------|

Guitar 2...
|-----------------------------------------------------------------|
|-----------------------------------------------------------------|
|-----------------------------------------------------------------|
|-7---7---7---7---7---7---7---7---7---7---7---7---7---7---7---7---|
|-5---5---5---5---5---5---5---5---5---5---5---5---5---5---5---5---|
|-----------------------------------------------------------------|


|------------------------------------------------------------------|
|------------------------------------------------------------------|
|-10-10-10-10-10-10-10-10-10-10-10-10-10-10-10-10-5555555555555555-|
|-x--x--x--x--x--x--x--x--x--x--x--x--x--x--x--x--xxxxxxxxxxxxxxxx-|
|-8--8--8--8--8--8--8--8--8--8--8--8--8--8--8--8--3333333333333333-|
|------------------------------------------------------------------|


|------------------------------------------------------------------|
|------------------------------------------------------------------|
|------------------------------------------------------------------|
|-3-----3-----3-----3-----3-----3-----3-----3-----5-5-5-5-5-5-5-5--|
|-3-----3-----3-----3-----3-----3-----3-----3-----3-3-3-3-3-3-3-3--|
|-3-----3-----3-----3-----3-----3-----3-----3----------------------|



|-----------------------------------------------------------------|
|-----------------------------------------------------------------|
|-----------------------------------------------------------------|
|-3-----3-----3-----3-----3-----3-----3-----3-----5-5-5-5-5-5-5-5-|
|-3-----3-----3-----3-----3-----3-----3-----3-----3-3-3-3-3-3-3-3-|
|-3-----3-----3-----3-----3-----3-----3-----3---------------------|


|-----------------------------------------------------------------|
|-----------------------------------------------------------------|
|-7-7-7-7-7-7-7-7-7-7-7-7-7-7-7-7-7-7-7-7-7-7-7-7-7-7-7-7-9-9-9-9-|
|-x-x-x-x-x-x-x-x-x-x-x-x-x-x-x-x-x-x-x-x-x-x-x-x-x-x-x-x-x-x-x-x-|
|-5-5-5-5-5-5-5-5-5-5-5-5-5-5-5-5-5-5-5-5-5-5-5-5-5-5-5-5-7-7-7-7-|
|-----------------------------------------------------------------|


|-----------------------------------------------------------------|
|-----------------------------------------------------------------|
|-----------------------------------------------------------------|
|-7---7---7---7---7---7---7---7---7---7---7---7---7---7---7---7---|
|-5---5---5---5---5---5---5---5---5---5---5---5---5---5---5---5---|
|-----------------------------------------------------------------|

Repeat This Until The End Of The Song.
comments
We did not receive enough feedback on this tab! Please rate:
print report bad tab
1 2 3 4 5
I want to post or [tab]
guest
You may want to rate the tab now too:
select rating
Please do not post tabs as comments. Select "correction" instead!