Oops, an error
Loading. Please wait.

Valentines Day tab

version 5
version 5

Whole song

Interactive

Video

535 views 24 this week
5 commentsread comments
1 2 3 4 5
x 7
add to favorites
×
Save as Personal and add changes to this tab that will be seen only by you. Learn more ›
×
You can save this tab as Personal to edit and correct it or add notes. All changes will be seen only by you. Learn more »
launch autoscroll
font size
0
reset
how to read this tab
guitar tuner
edit
Autoscroll
slow
fast
+/-
esc
set tempo
stop
Author
Difficulty
-------------------------------------------------------------------------------
                             Valentines Day ACOUSTIC - Linkin Park 
-------------------------------------------------------------------------------
Tabbed by: Guitar Realm 
Youtube Channel : Guitar Realm 
ACOUSTIC VERSION  
Tuning: e B G D A E

Play this from 0:01 - 1:48 and 2:18 till end . 

1.Guitar
e|-------------------3-------------------------------------------------------|
B|------4-----6-------------6-------4---------6-------4------4---------------|
G|---5-----5------5-----5-------5--------5--------5------5-------------------|
D|---------------------------------------------------------------------------|
A|---------------------------------------------------------------------------|
E|---------------------------------------------------------------------------|

e|-------------------3-------------------------------------------------------|
B|------4-----6------------6-------4-----6-------4---4-----------------------|
G|--3------3-----3------3------3------3------3-------------------------------|
D|---------------------------------------------------------------------------|
A|---------------------------------------------------------------------------|
E|---------------------------------------------------------------------------|

-----------------------------------------------------------------------------------
2. Guitar
e|---0-------------3-------------2----------------|
B|---0-------------0-------------3----------------|
G|---0-------------0-------------2----------------|  Find your own rythm :)
D|---2-------------0-------------0----------------|
A|---2-------------2-------------x----------------|
E|---0-------------3-------------x----------------|

Play the chords when Chester sing´s Valentines Daaaaaaaaay !!!!! 

It´s everytime the same but you can sing if you like . It´s just a tab to play along this song . 


Hope you enjoy it ( It´s my first tab) :)
Suggest correction
Creating personal tab
Creating personal tab
You can edit any tab online and save it as your Personal.

You can edit, replace or remove any tab part or add personal notes – all changes will be seen only by you.

Personal tabs can be accessed anytime from any device, even offline.
Learn more »
comments
print report bad tab
5 comments total. Showing first comments.
0 reply
EdwardMasters 785 Nov 13, 2015 06:17 AM

sounds good cx great job. i love linkin park

0 reply
Fuenfundzwanzig 10 Nov 15, 2015 04:05 AM

Very good! helped me out

0 reply
dennis.abresch 10 Jul 03, 2017 08:54 PM

What am I supposed to play in the 40seks in between? Or is there no guitar part then?

guest
You may want to rate the tab now too:
select rating
Wanna post a correction for this tab? Suggest correction