Oops, an error
Loading. Please wait.

Wake Tab

version 1
version 1

Whole song

Interactive

7,021 views 3 this week
5 commentsread comments
1 2 3 4 5
x 7
add to favorites
launch autoscroll
font size
0
reset
how to read this tab
guitar tuner
Autoscroll
slow
fast
+/-
esc
set tempo
stop
Help us to improve Ultimate-Guitar.com Take our survey!
×
Author
first strings part(0:05)

sustain these notes until ending

e|-------------|
B|-------------|
G|--7----------|
D|--5----------|
A|-------------|
E|-------------|

Piano Part(0:17)


repeat x2

e|---10--11--8--7-------|
B|---8---8---8--8-------|
G|----------------------|
D|----------------------|
A|----------------------|
E|----------------------|

repeat x2

e|----10----11----8----7-------|
B|--8----8------8----8---------|
G|-----------------------------|
D|-----------------------------|
A|-----------------------------|
E|-----------------------------|

Second Strings part(0:41)

play very slowly

e|----------------------------------22---------------------------------------|
B|---------------------------------------------------------------------------|
G|---12-----13--12----13----12---------------------------------------------------------|
D|---------------------------------------------------------------------------|
A|---------------------------------------------------------------------------|
E|---------------------------------------------------------------------------|


ending(1:03)

e|---------------------------------------------------3-----------|
B|--4--------6-------8--------------4-------6--------3-----------|
G|--3--------5-------7--------------3-------7--------4-----------|
D|--5--------7-------9--------------5-------9--------5-----------|
A|--6(x10)---8(x10)--10(x10)-10b11--6(x10)--8(x10)---5-----------|
E|---------------------------------------------------3(x22)------|


Suggest correction
comments
print report bad tab
5 comments total. Showing first comments.
0 reply
guitar padawan 166 May 18, 2007 11:52 PM

does not go with the song at all

0 reply
JL Sevenfold 697 Jun 11, 2007 12:02 PM

no offense, this doesn't sound right, and I'm not sure where some
of this stuff is played

0 reply
scarlet20 1,677 Jun 11, 2007 04:19 PM

You guys I'm sorry about this tab I must of drunk when I did this! I would delete this shit but i can't! Just look at the other ones.

guest
You may want to rate the tab now too:
select rating
Wanna post a correction for this tab? Suggest correction