Oops, an error
Loading. Please wait.

Wake Tab

version 2
version 2

Whole song

Interactive

5,129 views 1 this week
5 commentsread comments
1 2 3 4 5
x 9
add to favorites
launch autoscroll
font size
0
reset
how to read this tab
guitar tuner
Autoscroll
slow
fast
+/-
esc
set tempo
stop
Help us to improve Ultimate-Guitar.com Take our survey!
×
Author
Tuning
D A D G B E
"Wake"- Linkin Park
Album-Minutes to Midnight

a kool way to introduce an album

drop d tuning

Phase I
Gtr 1(distortion)
 PM..
e--------------|
b--------------|
g--------------|
d-1-1----------|
a-1-1----------|
d-1-1----------|

Phase II
Gtr 1 (distortion)
e-----------------------|-------------------------------|
b-----------------------|-------------------------------|
g-----------------------|-------------------------------|
d-1-------3-------5-----|-1-------3-------5--------5~---|
a-1-X12---3-X12---5-X24-|-1-X12---3-X12---5-X48----5~---|
d-1-------3-------5-----|-1-------3-------5--------5~---|

Gtr 2 (distortion)
e---------------------------------------------------------------|
b---------------------------------------------------------------|
g-12-----14------16------16b17-17-17-17-17-17r16-16-16-16-16-16-|
d-x-X12--x--X12--x--X12--x--x--x--x--x--x--x--x--x--x--x--x--x--|
a-10-----12------14------14b15-15-15-15-15-15r14-14-14-14-14-14-|
d---------------------------------------------------------------|X2 and second time 
hold the 12 48 times after the second time through then let the 49th one ring     x
         10                             
Suggest correction
comments
print report bad tab
5 comments total. Showing first comments.
0 reply
rastamon360 10 May 19, 2007 09:01 PM

spot on

0 reply
JL Sevenfold 697 Jun 11, 2007 12:10 PM

idk, sounds like the lead is off, I think it goes 10-12-14-14^-12
on the A string with an octave up being played on the G string,
but that's just me

0 reply
prophetsfan 20 Jun 27, 2007 04:18 PM

really bad, try playin along to the song

guest
You may want to rate the tab now too:
select rating
Wanna post a correction for this tab? Suggest correction