Oops, an error
Loading. Please wait.

Wake Tab

version 4
version 4

Intro

Whole song

Interactive

248 views 1 this week
no commentswrite comment
1 2 3 4 5
worth learning
x 1
add to favorites
launch autoscroll
font size
0
reset
how to read this tab
guitar tuner
Tab Pro tools
  • play this tab
  • loop segment
  • change instrument
  • show fretboard
  • metronome
Autoscroll
slow
fast
+/-
esc
set tempo
stop
Contributor
Difficulty
novice
-------------------------------------------------------------------------------
                             WAKE - Linkin Park
-------------------------------------------------------------------------------
Tabbed by:Jack R
Email:jrtumtum24@hotmail.co.uk

Guitar 1, Guitar 2 & Bass.
_____________
The "humming" throughout the song is a G and can be played tremelo on the 5th fret 
of the D string.
_______________

Tuning:Drop D

GUITAR 1
0:40 - 1:04

e|---------------------------------------------------------------------------|
B|---------------------------------------------------------------------------|
G|---------------------------------------------------------------------------|
D|----121212121212121212121212121212121213131313131212121212121212121212-----|
A|---------------------------------------------------------------------------|
D|---------------------------------------------------------------------------|
1:04 - 1:33
e|-------------------------------------------------------------|-------------|
B|-------------------------------------------------------------|-------------|
G|-------------------------------------------------------------|-------------|
D|-111111-111111--333333-333333--555555-555555-555555-555555---|-------------|
A|-111111-111111--333333-333333--555555-555555-555555-555555-X2|-HOLD THE G--|
D|-111111-111111--333333-333333--555555-555555-555555-555555---|-------------|



GUITAR 2
0:18 - 1:04

e|--------------------|----|-----------------------------|----|--------------|
B|-15~--16~--13~--12~-|----|------15~--16~----13~----12~-|----|--------------|
G|--------------------|-X2-|----12----------12-----12----|-X2-|--------------|
D|--------------------|----|-----------------------------|----|--------------|
A|--------------------|----|-----------------------------|----|--------------|
D|--------------------|----|-----------------------------|----|--------------|

1:04 - 1:33
e|---------------------------------------------------------------------------|
B|--888888-888888---101010101010-101010101010---121212121212-121212121212----|
G|---------------------------------------------------------------------------|
D|--555555-555555---7-7-7-7-7-7--7-7-7-7-7-7----9-9-9-9-9-9--9-9-9-9-9-9-----|
A|---------------------------------------------------------------------------|
D|---------------------------------------------------------------------------|

e|---------------------------------------------------------------------------|
B|--131313131313-121212121212---888888-888888---101010101010---101010101010--|
G|---------------------------------------------------------------------------|
D|--101010101010-9-9-9-9-9-9----555555-555555---7-7-7-7-7-7----7-7-7-7-7-7---|
A|---------------------------------------------------------------------------|
D|---------------------------------------------------------------------------|

e|---------------------------------------------------------------------------|
B|--888888-888888------------------------------------------------------------|
G|------------------HOLD G---------------------------------------------------|
D|--555555-555555------------------------------------------------------------|
A|---------------------------------------------------------------------------|
D|---------------------------------------------------------------------------|



BASS
1:04 - 1:33

G|---------------------------------------------------------------------------|
D|-------------------------------53---3h5-------53---3h5---------------------|
A|--------111333------111333--------3h5-----------3h5------------------------|
D|--111111------333333------555555--------555555-----------------------------|


G|---------------------------------------------------------------------------|
D|--------------------------------53---3h5------53---3h5---------------------|
A|--------111333------555333--------3h5-----------3h5------------------------|
D|--111111------333333------555555--------555555-----------------------------|


G|---------------------------------------------------------------------------|
D|--------53---3h5------53---3h5---------------------------------------------|
A|----------3h5-----------3h5------------------------------------------------|
D|--555555--------555555--------5~-------------------------------------------|
comments
We did not receive enough feedback on this tab! Please rate:
print report bad tab
1 2 3 4 5
I want to post or [tab]
guest
You may want to rate the tab now too:
select rating
Please do not post tabs as comments. Select "correction" instead!