Oops, an error
Loading. Please wait.

Wastelands Tab

version 1
version 1

Whole song

Interactive

1,243 views 1 this week
no commentswrite comment
1 2 3 4 5
please rate
add to favorites
launch autoscroll
font size
0
reset
how to read this tab
guitar tuner
Autoscroll
slow
fast
+/-
esc
set tempo
stop
Help us to improve Ultimate-Guitar.com Take our survey!
×
Author
-------------------------------------------------------------------------------
                             SONG NAME - Wastelands
-------------------------------------------------------------------------------
Tabbed by: omaprofi

Tuning: Standar

Intro:(x3)
e|--5-xxx-5-xx-55-xx-5-6-5------------------------------------------------------------------|
B|--5-xxx-5-xx-55-xx-5-6-5------------------------------------------------------------------|
G|--7-xxx-7-xx-77-xx-7-8-7------------------------------------------------------------------|
D|--7-xxx-7-xx-77-xx-7-8-7------------------------------------------------------------------|
A|--5-xxx-5-xx-55-xx-5-6-5------------------------------------------------------------------|
E|--5-xxx-5-xx-55-xx-5-6-5------------------------------------------------------------------|

e|--5555-6-5-5555-8--6-5--|
B|--5555-6-5-5555-8--6-5--|
G|--7777-8-7-7777-10-8-7--|
D|--7777-8-7-7777-10-8-7--|
A|--5555-6-5-5555-8--6-5--|
E|--5555-6-5-5555-8--6-5--|

Verse:(x4)
e|--5555-8--6-5---------------------------------------------------------------------|
B|--5555-8--6-5---------------------------------------------------------------------|
G|--7777-10-8-7---------------------------------------------------------------------|
D|--7777-10-8-7---------------------------------------------------------------------|
A|--5555-8--6-5---------------------------------------------------------------------|
E|--5555-8--6-5---------------------------------------------------------------------|

Chorus:(x2)
e|--5-5-8--3------------------------------------------------------------------------|
B|--4-5-8--3------------------------------------------------------------------------|
G|--7-5-8--3------------------------------------------------------------------------|
D|--7-7-10-5------------------------------------------------------------------------|
A|--5-7-10-5------------------------------------------------------------------------|
E|--5-5-8--3------------------------------------------------------------------------|

Bridge:(x4)
e|---------------------------------------------------------------------------------|
B|---------------------------------------------------------------------------------|
G|---------------------------------------------------------------------------------|
D|--2-3-5-3------------------------------------------------------------------------|
A|--2-3-5-3------------------------------------------------------------------------|
E|----1-3-1------------------------------------------------------------------------|


************************************

| /   slide up
| \   slide down
| h   hammer-on
| p   pull-off
| ~   vibrato
| +   harmonic
| x   Mute note
| b   Bend
| pb  Pre-bend
| br  Bend release
| pbr Pre-bend release
| brb Bend release bend

************************************
Suggest correction
Give kudos to tab author, rate the tab!
1 2 3 4 5
comments
print report bad tab
guest
You may want to rate the tab now too:
select rating
Wanna post a correction for this tab? Suggest correction